0
SECTION
2
HEADER
9
$INSUNITS
70
4
9
$ACADVER
1
AC1014
9
$HANDSEED
5
FFFF
0
ENDSEC
0
SECTION
2
TABLES
0
TABLE
2
VPORT
5
8
100
AcDbSymbolTable
0
ENDTAB
0
TABLE
2
LTYPE
5
5
100
AcDbSymbolTable
0
LTYPE
5
14
100
AcDbSymbolTableRecord
100
AcDbLinetypeTableRecord
2
BYBLOCK
70
0
0
LTYPE
5
15
100
AcDbSymbolTableRecord
100
AcDbLinetypeTableRecord
2
BYLAYER
70
0
0
ENDTAB
0
TABLE
2
LAYER
5
2
100
AcDbSymbolTable
70
2
0
LAYER
5
50
100
AcDbSymbolTableRecord
100
AcDbLayerTableRecord
2
0
70
0
6
CONTINUOUS
0
ENDTAB
0
TABLE
2
STYLE
5
3
100
AcDbSymbolTable
70
1
0
STYLE
5
11
100
AcDbSymbolTableRecord
100
AcDbTextStyleTableRecord
2
STANDARD
70
0
0
ENDTAB
0
TABLE
2
VIEW
5
6
100
AcDbSymbolTable
70
0
0
ENDTAB
0
TABLE
2
UCS
5
7
100
AcDbSymbolTable
70
0
0
ENDTAB
0
TABLE
2
APPID
5
9
100
AcDbSymbolTable
70
2
0
APPID
5
12
100
AcDbSymbolTableRecord
100
AcDbRegAppTableRecord
2
ACAD
70
0
0
ENDTAB
0
TABLE
2
DIMSTYLE
5
A
100
AcDbSymbolTable
70
1
0
ENDTAB
0
TABLE
2
BLOCK_RECORD
5
1
100
AcDbSymbolTable
70
1
0
BLOCK_RECORD
5
1F
100
AcDbSymbolTableRecord
100
AcDbBlockTableRecord
2
*MODEL_SPACE
0
BLOCK_RECORD
5
1B
100
AcDbSymbolTableRecord
100
AcDbBlockTableRecord
2
*PAPER_SPACE
0
ENDTAB
0
ENDSEC
0
SECTION
2
BLOCKS
0
BLOCK
5
20
100
AcDbEntity
100
AcDbBlockBegin
2
*MODEL_SPACE
0
ENDBLK
5
21
100
AcDbEntity
100
AcDbBlockEnd
0
BLOCK
5
1C
100
AcDbEntity
100
AcDbBlockBegin
2
*PAPER_SPACE
0
ENDBLK
5
1D
100
AcDbEntity
100
AcDbBlockEnd
0
ENDSEC
0
SECTION
2
ENTITIES
0
LWPOLYLINE
5
100
100
AcDbEntity
8
0
100
AcDbPolyline
90
4
70
1
43
0.0
10
50.90663652618705
20
-73.743241861910718
42
-0.99999999999999989
10
45.90663652618705
20
-73.743241861910718
10
45.90663652618705
20
-53.743241861910711
42
-0.99999999999999989
10
50.90663652618705
20
-53.743241861910711
0
LWPOLYLINE
5
101
100
AcDbEntity
8
0
100
AcDbPolyline
90
4
70
1
43
0.0
10
131.22711461596271
20
41.564333822092998
42
-0.99999999999999989
10
130.33559328015878
20
36.644456820804614
10
110.65608527500524
20
40.210542164020325
42
-0.99999999999999989
10
111.54760661080915
20
45.130419165308709
0
LWPOLYLINE
5
102
100
AcDbEntity
8
0
100
AcDbPolyline
90
4
70
1
43
0.0
10
42.182837310990195
20
134.17928170500647
42
-0.99999999999999989
10
37.18283731099018
20
134.17928170500647
10
37.18283731099018
20
154.17928170500647
42
-0.99999999999999989
10
42.182837310990195
20
154.17928170500647
0
LWPOLYLINE
5
103
100
AcDbEntity
8
0
100
AcDbPolyline
90
4
70
1
43
0.0
10
45.906636526187029
20
47.243241861910725
42
-0.99999999999999989
10
50.906636526187029
20
47.243241861910725
10
50.906636526187029
20
27.243241861910725
42
-0.99999999999999989
10
45.906636526187029
20
27.243241861910725
0
LWPOLYLINE
5
104
100
AcDbEntity
8
0
100
AcDbPolyline
90
4
70
1
43
0.0
10
186.75883163647313
20
-4.5095595776576225
42
-0.99999999999999989
10
186.75883163647313
20
0.49044042234237778
10
218.60447678695016
20
0.49044042234237889
42
-0.99999999999999989
10
218.60447678695016
20
-4.5095595776576216
0
CIRCLE
5
105
100
AcDbEntity
8
0
100
AcDbCircle
10
28.215702492436485
20
-13.250000000000002
30
0
40
4.1000000000000014
0
CIRCLE
5
106
100
AcDbEntity
8
0
100
AcDbCircle
10
98.257914250486863
20
159.5732217227629
30
0
40
2.5
0
CIRCLE
5
107
100
AcDbEntity
8
0
100
AcDbCircle
10
265.04040332798667
20
-38.249999999999986
30
0
40
2.5
0
LWPOLYLINE
5
108
100
AcDbEntity
8
0
100
AcDbPolyline
90
4
70
1
43
0.0
10
187.04870924507753
20
63.490440422342374
42
-0.99999999999999989
10
187.04870924507753
20
68.490440422342388
10
218.60447678695016
20
68.490440422342388
42
-0.99999999999999989
10
218.60447678695016
20
63.490440422342388
0
LWPOLYLINE
5
109
100
AcDbEntity
8
0
100
AcDbPolyline
90
4
70
1
43
0.0
10
138.45116679611326
20
77.73608535399589
42
-0.99999999999999989
10
136.82644568745951
20
73.007419440749857
10
117.91178203447538
20
79.506303875364893
42
-0.99999999999999989
10
119.53650314312915
20
84.234969788610925
0
LWPOLYLINE
5
110
100
AcDbEntity
8
0
100
AcDbPolyline
90
4
70
1
43
0.0
10
130.3355932801588
20
-63.144456820804564
42
-0.99999999999999989
10
131.22711461596271
20
-68.064333822092948
10
111.54760661080917
20
-71.63041916530868
42
-0.99999999999999989
10
110.65608527500527
20
-66.710542164020296
0
LWPOLYLINE
5
111
100
AcDbEntity
8
0
100
AcDbPolyline
90
4
70
1
43
0.0
10
136.82644568745951
20
-99.5074194407498
42
-0.99999999999999989
10
138.45116679611328
20
-104.23608535399583
10
119.53650314312917
20
-110.73496978861088
42
-0.99999999999999989
10
117.91178203447541
20
-106.00630387536485
0
LWPOLYLINE
5
112
100
AcDbEntity
8
0
100
AcDbPolyline
90
4
70
1
43
0.0
10
37.182837310990244
20
-160.67928170500647
42
-0.99999999999999989
10
42.182837310990244
20
-160.67928170500647
10
42.182837310990244
20
-180.67928170500647
42
-0.99999999999999989
10
37.182837310990237
20
-180.67928170500647
0
CIRCLE
5
113
100
AcDbEntity
8
0
100
AcDbCircle
10
98.257914250486934
20
-186.07322172276287
30
0
40
2.5
0
CIRCLE
5
114
100
AcDbEntity
8
0
100
AcDbCircle
10
265.04040332798667
20
11.750000000000064
30
0
40
2.5
0
CIRCLE
5
115
100
AcDbEntity
8
0
100
AcDbCircle
10
0.040403327986666161
20
8.4999999999999982
30
0
40
2.5
0
LWPOLYLINE
5
116
100
AcDbEntity
8
0
100
AcDbPolyline
90
4
70
1
43
0.0
10
-6.3782572352913487
20
27.243241861910708
42
-0.99999999999999989
10
-11.378257235291349
20
27.243241861910708
10
-11.378257235291356
20
47.243241861910704
42
-0.99999999999999989
10
-6.3782572352913549
20
47.243241861910704
0
LWPOLYLINE
5
117
100
AcDbEntity
8
0
100
AcDbPolyline
90
4
70
1
43
0.0
10
-11.378257235291382
20
154.17928170500647
42
-0.99999999999999989
10
-6.3782572352913833
20
154.17928170500647
10
-6.378257235291378
20
134.17928170500647
42
-0.99999999999999989
10
-11.378257235291375
20
134.17928170500647
0
CIRCLE
5
118
100
AcDbEntity
8
0
100
AcDbCircle
10
-8.4842975075635447
20
-13.250000000000004
30
0
40
4.2500000000000027
0
CIRCLE
5
119
100
AcDbEntity
8
0
100
AcDbCircle
10
0.040403327986668826
20
-35.000000000000007
30
0
40
2.5
0
LWPOLYLINE
5
120
100
AcDbEntity
8
0
100
AcDbPolyline
90
4
70
1
43
0.0
10
-11.378257235291326
20
-160.67928170500647
42
-0.99999999999999989
10
-6.37825723529133
20
-160.67928170500647
10
-6.3782572352913274
20
-180.67928170500647
42
-0.99999999999999989
10
-11.378257235291327
20
-180.67928170500647
0
LWPOLYLINE
5
121
100
AcDbEntity
8
0
100
AcDbPolyline
90
4
70
1
43
0.0
10
-6.3782572352913336
20
-73.743241861910718
42
-0.99999999999999989
10
-11.378257235291333
20
-73.743241861910718
10
-11.378257235291333
20
-53.743241861910711
42
-0.99999999999999989
10
-6.3782572352913345
20
-53.743241861910711
0
CIRCLE
5
122
100
AcDbEntity
8
0
100
AcDbCircle
10
199.15728905588742
20
-121.11695825356934
30
0
40
2.5
0
CIRCLE
5
123
100
AcDbEntity
8
0
100
AcDbCircle
10
199.15728905588742
20
94.616958253569408
30
0
40
2.5
0
LWPOLYLINE
5
124
100
AcDbEntity
8
0
100
AcDbPolyline
90
16
70
1
43
0.0
10
-17.459596672013355
20
159.75
42
-0.41421356237308005
10
-15.45959667201334
20
161.75
10
55.072345309909565
20
161.75000000000006
42
0.41421356237309398
10
65.072345309909565
20
171.75
10
65.072345309909636
20
198.08384718535851
42
-0.59359325817522379
10
68.154949701062861
20
199.76550343211517
10
280.24691430586978
20
63.226485632063245
42
-0.25502538978491862
10
282.54040332798667
20
59.022345015171567
10
282.54040332798661
20
-85.522345015171467
42
-0.2550253897849199
10
280.24691430586972
20
-89.726485632063131
10
68.154949701062989
20
-226.26550343211517
42
-0.59359325817522823
10
65.072345309909693
20
-224.58384718535851
10
65.072345309909622
20
-198.24999999999994
42
0.41421356237309398
10
55.072345309909622
20
-188.25
10
-15.459596672013321
20
-188.24999999999994
42
-0.41421356237310902
10
-17.459596672013319
20
-186.24999999999994
0
ENDSEC
0
SECTION
2
OBJECTS
0
DICTIONARY
5
C
100
AcDbDictionary
3
ACAD_GROUP
350
D
3
ACAD_MLINESTYLE
350
17
0
DICTIONARY
5
D
100
AcDbDictionary
0
DICTIONARY
5
1A
330
C
100
AcDbDictionary
0
DICTIONARY
5
17
100
AcDbDictionary
0
ENDSEC
0
EOF
