0
SECTION
2
HEADER
9
$INSUNITS
70
4
9
$ACADVER
1
AC1014
9
$HANDSEED
5
FFFF
0
ENDSEC
0
SECTION
2
TABLES
0
TABLE
2
VPORT
5
8
100
AcDbSymbolTable
0
ENDTAB
0
TABLE
2
LTYPE
5
5
100
AcDbSymbolTable
0
LTYPE
5
14
100
AcDbSymbolTableRecord
100
AcDbLinetypeTableRecord
2
BYBLOCK
70
0
0
LTYPE
5
15
100
AcDbSymbolTableRecord
100
AcDbLinetypeTableRecord
2
BYLAYER
70
0
0
ENDTAB
0
TABLE
2
LAYER
5
2
100
AcDbSymbolTable
70
2
0
LAYER
5
50
100
AcDbSymbolTableRecord
100
AcDbLayerTableRecord
2
0
70
0
6
CONTINUOUS
0
ENDTAB
0
TABLE
2
STYLE
5
3
100
AcDbSymbolTable
70
1
0
STYLE
5
11
100
AcDbSymbolTableRecord
100
AcDbTextStyleTableRecord
2
STANDARD
70
0
0
ENDTAB
0
TABLE
2
VIEW
5
6
100
AcDbSymbolTable
70
0
0
ENDTAB
0
TABLE
2
UCS
5
7
100
AcDbSymbolTable
70
0
0
ENDTAB
0
TABLE
2
APPID
5
9
100
AcDbSymbolTable
70
2
0
APPID
5
12
100
AcDbSymbolTableRecord
100
AcDbRegAppTableRecord
2
ACAD
70
0
0
ENDTAB
0
TABLE
2
DIMSTYLE
5
A
100
AcDbSymbolTable
70
1
0
ENDTAB
0
TABLE
2
BLOCK_RECORD
5
1
100
AcDbSymbolTable
70
1
0
BLOCK_RECORD
5
1F
100
AcDbSymbolTableRecord
100
AcDbBlockTableRecord
2
*MODEL_SPACE
0
BLOCK_RECORD
5
1B
100
AcDbSymbolTableRecord
100
AcDbBlockTableRecord
2
*PAPER_SPACE
0
ENDTAB
0
ENDSEC
0
SECTION
2
BLOCKS
0
BLOCK
5
20
100
AcDbEntity
100
AcDbBlockBegin
2
*MODEL_SPACE
0
ENDBLK
5
21
100
AcDbEntity
100
AcDbBlockEnd
0
BLOCK
5
1C
100
AcDbEntity
100
AcDbBlockBegin
2
*PAPER_SPACE
0
ENDBLK
5
1D
100
AcDbEntity
100
AcDbBlockEnd
0
ENDSEC
0
SECTION
2
ENTITIES
0
CIRCLE
5
100
100
AcDbEntity
8
0
100
AcDbCircle
10
436.42600668253453
20
-114.1045503419015
30
0
40
11.499999999999989
0
LWPOLYLINE
5
101
100
AcDbEntity
8
0
100
AcDbPolyline
90
4
70
1
43
0.0
10
314.61698806661013
20
-404.72985840832757
10
312.25104537622337
20
-387.89530126727141
10
307.29970503162127
20
-388.59116674459983
10
309.66564765453791
20
-405.42572391624708
0
LWPOLYLINE
5
102
100
AcDbEntity
8
0
100
AcDbPolyline
90
4
70
1
43
0.0
10
564.14002032121414
20
-759.75747218166475
10
547.5115111041971
20
-763.29197090419621
10
548.17682851079121
20
-766.4220432273994
10
564.80533772780836
20
-762.88754450486795
0
LWPOLYLINE
5
103
100
AcDbEntity
8
0
100
AcDbPolyline
90
4
70
1
43
0.0
10
405.19103517689837
20
-793.54312173137578
10
405.85635258349259
20
-796.67319405457886
10
417.5941237955044
20
-794.17825377985082
10
416.92880638891029
20
-791.04818145664751
0
LWPOLYLINE
5
104
100
AcDbEntity
8
0
100
AcDbPolyline
90
4
70
1
43
0.0
10
571.61698746544926
20
-678.52572391677836
10
571.61698746544926
20
-675.32572391677809
10
549.61698746544937
20
-675.3257239167782
10
549.61698746544937
20
-678.52572391677859
0
LWPOLYLINE
5
105
100
AcDbEntity
8
0
100
AcDbPolyline
90
4
70
1
43
0.0
10
490.74375798760298
20
-825.31750399218129
10
474.11524877058594
20
-828.85200271471274
10
474.98847786674082
20
-832.960222638917
10
491.61698708375786
20
-829.42572391638521
0
LWPOLYLINE
5
106
100
AcDbEntity
8
0
100
AcDbPolyline
90
4
70
1
43
0.0
10
316.4917480792476
20
-445.2697059053923
10
319.4756419034523
20
-446.42572391817259
10
325.61698759634669
20
-430.57378797708424
10
322.63309377214205
20
-429.41776996430411
0
LWPOLYLINE
5
107
100
AcDbEntity
8
0
100
AcDbPolyline
90
4
70
1
43
0.0
10
549.61698746544948
20
-440.52572391677842
10
571.61698595355779
20
-440.52572391677842
10
571.61698746544948
20
-437.32572391677843
10
549.61698746544948
20
-437.32572391677843
0
LWPOLYLINE
5
108
100
AcDbEntity
8
0
100
AcDbPolyline
90
4
70
1
43
0.0
10
484.61694253392858
20
-440.52572391677842
10
506.61694253392847
20
-440.52572391677842
10
506.61694253392852
20
-437.32572391677843
10
484.61694253392864
20
-437.32572391677843
0
LWPOLYLINE
5
109
100
AcDbEntity
8
0
100
AcDbPolyline
90
4
70
1
43
0.0
10
484.61698746544982
20
-675.32572391677809
10
484.61698746544982
20
-678.52572391677836
10
506.61698746544971
20
-678.52572391677836
10
506.61698746544971
20
-675.32572391677809
0
CIRCLE
5
110
100
AcDbEntity
8
0
100
AcDbCircle
10
477.61698791866706
20
-621.42572391630017
30
-1.1102230246251565e-15
40
4.0000000000000009
0
CIRCLE
5
111
100
AcDbEntity
8
0
100
AcDbCircle
10
541.1346926841095
20
-718.85758914526593
30
0
40
25.000000000000007
0
LWPOLYLINE
5
112
100
AcDbEntity
8
0
100
AcDbPolyline
90
8
70
1
43
0.0
10
390.87648361589913
20
-659.63909385808972
10
404.0703627026196
20
-652.50315981655672
42
0.41421356237310442
10
412.14762276287343
20
-625.3967423122059
10
400.2543993602867
20
-603.40694383427956
42
0.41421356237309503
10
373.14798185607395
20
-595.32968377406678
10
359.95410276925617
20
-602.46561781565242
42
0.41421356237309592
10
351.87684270901912
20
-629.57203531994742
10
363.77006611159243
20
-651.56183379784909
42
0.41421356237309886
0
LWPOLYLINE
5
113
100
AcDbEntity
8
0
100
AcDbPolyline
90
8
70
1
43
0.0
10
392.61698791521604
20
-526.42572389266945
10
428.61698791521576
20
-526.42572390347925
42
0.41421356245737223
10
440.6169879186682
20
-514.42572390347925
10
440.61698791866826
20
-473.42572392101005
42
0.41421356237353379
10
428.61698791865052
20
-461.42572392100999
10
392.61698791865717
20
-461.42572392109827
42
0.41421356237282103
10
380.6169879186686
20
-473.42572392109832
10
380.6169879186686
20
-514.42572389266945
42
0.41421356228883177
0
CIRCLE
5
114
100
AcDbEntity
8
0
100
AcDbCircle
10
555.61698791866036
20
-797.42572391572048
30
0
40
22.500000000000007
0
CIRCLE
5
115
100
AcDbEntity
8
0
100
AcDbCircle
10
477.61698791866712
20
-535.42572391630017
30
0
40
4.0000000000000053
0
LWPOLYLINE
5
116
100
AcDbEntity
8
0
100
AcDbPolyline
90
8
70
1
43
0.0
10
507.61698791853399
20
-659.42572391649935
10
545.61698779911887
20
-659.42572391675162
42
0.41421356147821786
10
565.61698779925143
20
-639.42572397799051
10
565.61698788498586
20
-611.42572396722687
42
0.41421356326991909
10
545.61698788498586
20
-591.42572390598787
10
507.61698791866695
20
-591.42572390598787
42
0.41421356237310231
10
487.61698791866706
20
-611.42572390598798
10
487.61698791866701
20
-639.42572391650492
42
0.41421356237115436
0
LWPOLYLINE
5
117
100
AcDbEntity
8
0
100
AcDbPolyline
90
8
70
1
43
0.0
10
433.69208786508688
20
-738.80236837839323
10
446.88596695180735
20
-731.66643433686022
42
0.41421356237309792
10
454.96322701206111
20
-704.56001683250929
10
443.07000360947433
20
-682.57021835458306
42
0.4142135623730937
10
415.9635861052617
20
-674.49295829437017
10
402.76970701844391
20
-681.62889233595581
42
0.41421356237310236
10
394.6924469582068
20
-708.73530984025081
10
406.58567036078011
20
-730.72510831815237
42
0.41421356237309592
0
LWPOLYLINE
5
118
100
AcDbEntity
8
0
100
AcDbPolyline
90
8
70
1
43
0.0
10
476.50769211427445
20
-817.96564289869661
10
489.70157120099492
20
-810.82970885716361
42
0.4142135623731053
10
497.7788312612488
20
-783.72329135281279
10
485.88560785866201
20
-761.73349287488645
42
0.4142135623730937
10
458.77919035444933
20
-753.65623281467367
10
445.58531126763148
20
-760.7921668562592
42
0.41421356237310153
10
437.50805120739449
20
-787.89858436055408
10
449.4012746099678
20
-809.88838283845598
42
0.41421356237310214
0
LWPOLYLINE
5
119
100
AcDbEntity
8
0
100
AcDbPolyline
90
6
70
1
43
0.0
10
476.5261725506756
20
-525.42572391629824
10
477.61698791866712
20
-525.42572391630029
42
-0.41421356237309293
10
487.61698791866706
20
-535.42572391630006
10
487.61698791866706
20
-545.10388311761756
42
0.26450144140667775
10
492.50587680755621
20
-553.69902960909042
42
4.7325283848569359
10
466.72821358001414
20
-517.42572391861722
42
0.35639395862606388
0
ARC
5
120
100
AcDbEntity
8
0
100
AcDbCircle
10
486.44486340962521
20
-862.61430152988692
30
6.6633520970836089e-44
40
15.999999999999941
100
AcDbArc
50
102.99999999999865
51
208.40682082156272
0
LINE
5
121
100
AcDbEntity
8
0
100
AcDbLine
10
482.84564654012377
20
-847.02438049332318
30
6.9224073410774562e-30
11
530.70458991158966
21
-835.97527280797385
31
0
0
ARC
5
122
100
AcDbEntity
8
0
100
AcDbCircle
10
535.20361099846912
20
-855.4626741036891
30
0
40
20.00000000001096
100
AcDbArc
50
67.870404621177698
51
102.99999999999922
0
LINE
5
123
100
AcDbEntity
8
0
100
AcDbLine
10
542.73766697978283
20
-836.93599063171087
30
0
11
556.63267958375877
21
-842.58653261769314
31
1.1102230246251546e-15
0
ARC
5
124
100
AcDbEntity
8
0
100
AcDbCircle
10
549.09862360244972
20
-861.11321608966114
30
-7.5319792457458918e-44
40
19.999999999999819
100
AcDbArc
50
-11.056754122212039
51
67.870404621179034
0
LINE
5
125
100
AcDbEntity
8
0
100
AcDbLine
10
568.72737753759804
20
-864.94884106525421
30
2.3558155738114399e-30
11
557.9179422412825
21
-920.26596590394934
31
-1.1102230246251565e-15
0
ARC
5
126
100
AcDbEntity
8
0
100
AcDbCircle
10
538.28918830679538
20
-916.43034092848598
30
0
40
19.999999999326185
100
AcDbArc
50
247.87040532621876
51
348.94324587778948
0
LINE
5
127
100
AcDbEntity
8
0
100
AcDbLine
10
530.75513257920363
20
-934.95702442986271
30
0
11
506.10698033818881
21
-924.9336136504528
31
0
0
ARC
5
128
100
AcDbEntity
8
0
100
AcDbCircle
10
512.13422530310129
20
-910.11226662869581
30
-2.8135445729021718e-44
40
15.999999972020586
100
AcDbArc
50
208.40682082155823
51
247.87040435392609
0
LINE
5
129
100
AcDbEntity
8
0
100
AcDbLine
10
498.0607541985591
20
-917.72392940198472
30
2.0055610145253697e-30
11
472.37139228047317
21
-870.22596431648753
31
-3.1554436208840675e-30
0
LWPOLYLINE
5
130
100
AcDbEntity
8
0
100
AcDbPolyline
90
4
70
1
43
0.0
10
572.11762778163063
20
-896.99727835374858
10
574.11567924018527
20
-900.69154321199244
10
584.67078078869974
20
-894.98279279656049
10
582.6727310511925
20
-891.28853112042225
0
LWPOLYLINE
5
131
100
AcDbEntity
8
0
100
AcDbPolyline
90
4
70
1
43
0.0
10
505.50755967686348
20
-937.79839900669185
10
503.50949648924563
20
-934.1041137580562
10
492.95439487567677
20
-939.81286009575172
10
494.95245896629007
20
-943.50715097142029
0
CIRCLE
5
132
100
AcDbEntity
8
0
100
AcDbCircle
10
245.6169874654521
20
-532.42572391823319
30
1.1102230246251565e-15
40
17.600000000000009
0
CIRCLE
5
133
100
AcDbEntity
8
0
100
AcDbCircle
10
354.29806434517872
20
-485.01426930779917
30
-1.1102230246251565e-15
40
12.600000000000005
0
LWPOLYLINE
5
134
100
AcDbEntity
8
0
100
AcDbPolyline
90
4
70
1
43
0.0
10
327.44765501873439
20
-582.30201548818047
10
312.49459204230999
20
-590.3894073806938
10
314.492653479566
20
-594.08369342980427
10
329.44571651717229
20
-585.99630165041265
0
LWPOLYLINE
5
135
100
AcDbEntity
8
0
100
AcDbPolyline
90
4
70
1
43
0.0
10
376.06407262000482
20
-560.7826665411302
10
391.01713417404085
20
-552.69527201871381
10
389.01907057552529
20
-549.00098359310687
10
374.06600902148955
20
-557.08837811552337
0
CIRCLE
5
136
100
AcDbEntity
8
0
100
AcDbCircle
10
580.6169887223449
20
-92.258310219826924
30
1.1102230246251565e-15
40
6.2500000000000018
0
CIRCLE
5
137
100
AcDbEntity
8
0
100
AcDbCircle
10
410.60003153490686
20
-813.82074782603354
30
0
40
4.4999999999999947
0
CIRCLE
5
138
100
AcDbEntity
8
0
100
AcDbCircle
10
570.61698872234501
20
-74.937802144138175
30
0
40
6.2500000000000018
0
CIRCLE
5
139
100
AcDbEntity
8
0
100
AcDbCircle
10
560.61698872234501
20
-57.617294068449425
30
0
40
6.2500000000000018
0
CIRCLE
5
140
100
AcDbEntity
8
0
100
AcDbCircle
10
384.43494004994591
20
-765.4431911743834
30
0
40
4.4999999999999947
0
LWPOLYLINE
5
141
100
AcDbEntity
8
0
100
AcDbPolyline
90
6
70
1
43
0.0
10
533.23286748486407
20
-123.28437848415994
10
507.07160416053222
20
-145.23628483317827
42
0.2679491927770925
10
500.23120127420447
20
-164.03013726558561
10
504.45563145126312
20
-187.98807132698326
42
0.71329306789699987
10
519.39767421823285
20
-190.35465840793512
10
548.49021950039673
20
-135.63953855148262
42
0.82433638527537623
0
LINE
5
142
100
AcDbEntity
8
0
100
AcDbLine
10
419.09631547509264
20
-111.669021106866
30
0
11
409.70213128281284
21
-178.51211576414408
31
0
0
LINE
5
143
100
AcDbEntity
8
0
100
AcDbLine
10
409.70213128281284
20
-178.51211576414408
30
0
11
406.73132707582278
21
-178.09459646670973
31
0
0
LINE
5
144
100
AcDbEntity
8
0
100
AcDbLine
10
406.73132707582278
20
-178.09459646670973
30
0
11
404.64373058864959
21
-192.94861750165978
31
-1.1102230246251565e-15
0
LINE
5
145
100
AcDbEntity
8
0
100
AcDbLine
10
404.64373058864959
20
-192.94861750165978
30
-1.1102230246251565e-15
11
407.61453479563966
21
-193.36613679909391
31
0
0
LINE
5
146
100
AcDbEntity
8
0
100
AcDbLine
10
407.61453479563966
20
-193.36613679909391
30
0
11
402.56742172770726
21
-229.27821278573063
31
0
0
ARC
5
147
100
AcDbEntity
8
0
100
AcDbCircle
10
372.859379657815
20
-225.1030198113869
30
-9.3755625378732292e-43
40
29.999999999991655
100
AcDbArc
50
322.70462715461321
51
352.00000010502742
0
ARC
5
148
100
AcDbEntity
8
0
100
AcDbCircle
10
492.18774225703385
20
-315.99164329852471
30
0
40
119.99999999999952
100
AcDbArc
50
142.70462715459749
51
154.99999999997198
0
LINE
5
149
100
AcDbEntity
8
0
100
AcDbLine
10
383.43080781266121
20
-265.27745188958784
30
1.0079345849897932e-29
11
341.93926623829725
21
-354.25634993831119
31
0
0
ARC
5
150
100
AcDbEntity
8
0
100
AcDbCircle
10
323.8131104975684
20
-345.80398470348854
30
-1.1102230246251565e-15
40
19.999999999999982
100
AcDbArc
50
289.99999916708782
51
334.99999999997249
0
LINE
5
151
100
AcDbEntity
8
0
100
AcDbLine
10
330.65351309087441
20
-364.59783721864602
30
-1.1102230246251565e-15
11
303.77658564129086
21
-374.38023835635613
31
1.1102230246251605e-15
0
ARC
5
152
100
AcDbEntity
8
0
100
AcDbCircle
10
310.61698823459699
20
-393.17409087151367
30
0
40
20.000000000000085
100
AcDbArc
50
109.99999916708809
51
187.99999992636586
0
LINE
5
153
100
AcDbEntity
8
0
100
AcDbLine
10
290.81162685618847
20
-395.95755286526196
30
3.8581120196405886e-30
11
297.32441491300574
21
-442.29844824517204
31
0
0
ARC
5
154
100
AcDbEntity
8
0
100
AcDbCircle
10
277.51905353459733
20
-445.08191023892044
30
-1.1102230246251565e-15
40
19.999999999999872
100
AcDbArc
50
-25.000000000027708
51
7.9999999263662369
0
LINE
5
155
100
AcDbEntity
8
0
100
AcDbLine
10
295.64520927532612
20
-453.53427547374315
30
-1.1102230246251565e-15
11
289.48480562939227
21
-466.7453037255641
31
0
0
ARC
5
156
100
AcDbEntity
8
0
100
AcDbCircle
10
253.23249414812119
20
-449.84057325600634
30
-1.1735874638720343e-43
40
39.999999999793815
100
AcDbArc
50
290.0000000005225
51
334.99999999997311
0
LINE
5
157
100
AcDbEntity
8
0
100
AcDbLine
10
266.91329988142019
20
-487.42827808712411
30
-5.5780889549723083e-30
11
233.6462824567684
21
-499.5364822128567
31
0
0
ARC
5
158
100
AcDbEntity
8
0
100
AcDbCircle
10
245.6169874654521
20
-532.42572391823319
30
1.1102230246251565e-15
40
34.999999976565725
100
AcDbArc
50
110.00000000052312
51
250.0000000005231
0
LINE
5
159
100
AcDbEntity
8
0
100
AcDbLine
10
233.64628245736898
20
-565.31496562382824
30
1.1102230246251522e-15
11
280.84172579169325
21
-582.49270219003154
31
0
0
ARC
5
160
100
AcDbEntity
8
0
100
AcDbCircle
10
267.16092005871764
20
-620.08040702239623
30
5.7803561653398704e-43
40
40.000000000854769
100
AcDbArc
50
28.406821598518906
51
70.000000000523642
0
LINE
5
161
100
AcDbEntity
8
0
100
AcDbLine
10
302.344597624306
20
-601.05124957838166
30
2.3598841248521452e-29
11
380.3901575677736
21
-745.35242657770573
31
0
0
ARC
5
162
100
AcDbEntity
8
0
100
AcDbCircle
10
371.59423225256023
20
-750.10971914261688
30
-1.1102230246251563e-15
40
10.000006734946181
100
AcDbArc
50
-50.056187122763262
51
28.406821598521233
0
ARC
5
163
100
AcDbEntity
8
0
100
AcDbCircle
10
384.43494004994591
20
-765.4431911743834
30
0
40
9.9999717972124564
100
AcDbArc
50
129.94381287723701
51
208.40682159851863
0
LINE
5
164
100
AcDbEntity
8
0
100
AcDbLine
10
375.63904546568131
20
-770.20046711840325
30
1.9323010241939813e-30
11
399.42792874458053
21
-814.18456895752433
31
0
0
ARC
5
165
100
AcDbEntity
8
0
100
AcDbCircle
10
373.04017040184272
20
-828.45643713169704
30
-8.0990672180273412e-43
40
30.000000192261659
100
AcDbArc
50
14.171425366549624
51
28.406821598524068
0
LINE
5
166
100
AcDbEntity
8
0
100
AcDbLine
10
402.12719766965841
20
-821.11172091818378
30
-2.9097873492435901e-30
11
410.17044800374657
21
-852.96512886319704
31
0
0
LINE
5
167
100
AcDbEntity
8
0
100
AcDbLine
10
410.17044800374657
20
-852.96512886319704
30
0
11
449.52101981803094
21
-925.72175894053328
31
3.1554436208840472e-29
0
LINE
5
168
100
AcDbEntity
8
0
100
AcDbLine
10
449.52101981803094
20
-925.72175894053328
30
3.1554436208840472e-29
11
483.37379029866634
21
-949.42572391647093
31
7.8886090522101181e-30
0
LINE
5
169
100
AcDbEntity
8
0
100
AcDbLine
10
483.37379029866634
20
-949.42572391647093
30
7.8886090522101181e-30
11
499.75683143141907
21
-960.89725264274318
31
0
0
LINE
5
170
100
AcDbEntity
8
0
100
AcDbLine
10
499.75683143141907
20
-960.89725264274318
30
0
11
510.88532361006577
21
-960.89725264274307
31
5.1943291427754588e-31
0
ARC
5
171
100
AcDbEntity
8
0
100
AcDbCircle
10
510.88532361006571
20
-980.89725264274307
30
0
40
19.99999999999995
100
AcDbArc
50
55.000000000000924
51
89.999999999999844
0
LINE
5
172
100
AcDbEntity
8
0
100
AcDbLine
10
522.35685233708637
20
-964.51421175696305
30
0
11
572.21565883857261
21
-999.42572391544331
31
0
0
LINE
5
173
100
AcDbEntity
8
0
100
AcDbLine
10
572.21565883857261
20
-999.42572391544331
30
0
11
595.61698872234422
21
-999.42572391537158
31
1.1102230246251554e-15
0
LINE
5
174
100
AcDbEntity
8
0
100
AcDbLine
10
595.61698872234422
20
-999.42572391537158
30
1.1102230246251554e-15
11
595.61698778316941
21
-959.42572391537146
31
0
0
LINE
5
175
100
AcDbEntity
8
0
100
AcDbLine
10
595.61698778316941
20
-959.42572391537146
30
0
11
598.61697764137375
21
-959.42572391537124
31
5.6336406852461568e-32
0
LINE
5
176
100
AcDbEntity
8
0
100
AcDbLine
10
598.61697764137375
20
-959.42572391537124
30
5.6336406852461568e-32
11
598.61697764137273
21
-939.42572391537146
31
1.1102230246251565e-15
0
LINE
5
177
100
AcDbEntity
8
0
100
AcDbLine
10
598.61697764137273
20
-939.42572391537146
30
1.1102230246251565e-15
11
595.61698731358194
21
-939.42572391537158
31
-5.6337031954330402e-32
0
LINE
5
178
100
AcDbEntity
8
0
100
AcDbLine
10
595.61698731358194
20
-939.42572391537158
30
-5.6337031954330402e-32
11
595.61698721046719
21
-924.43760440589938
31
-1.1102230246251565e-15
0
LINE
5
179
100
AcDbEntity
8
0
100
AcDbLine
10
595.61698696165286
20
-924.43685772673439
30
0
11
595.61698778316941
21
-739.42572391537146
31
0
0
LINE
5
180
100
AcDbEntity
8
0
100
AcDbLine
10
595.61698778316941
20
-739.42572391537146
30
0
11
598.61697764137386
21
-739.42572391537124
31
-1.1102230246251565e-15
0
LINE
5
181
100
AcDbEntity
8
0
100
AcDbLine
10
598.61697764137386
20
-739.42572391537124
30
-1.1102230246251565e-15
11
598.61697764137284
21
-719.42572391537124
31
0
0
LINE
5
182
100
AcDbEntity
8
0
100
AcDbLine
10
598.61697764137284
20
-719.42572391537124
30
0
11
595.61698669000918
21
-719.42572391537124
31
-5.6337862039035429e-32
0
LINE
5
183
100
AcDbEntity
8
0
100
AcDbLine
10
595.61698669000918
20
-719.42572391537124
30
-5.6337862039035429e-32
11
595.61698778316963
21
-519.42572391537135
31
0
0
LINE
5
184
100
AcDbEntity
8
0
100
AcDbLine
10
595.61698778316963
20
-519.42572391537135
30
0
11
598.61697764137398
21
-519.42572391537112
31
5.6336406852461568e-32
0
LINE
5
185
100
AcDbEntity
8
0
100
AcDbLine
10
598.61697764137398
20
-519.42572391537112
30
5.6336406852461568e-32
11
598.61697764137296
21
-499.42572391537112
31
0
0
LINE
5
186
100
AcDbEntity
8
0
100
AcDbLine
10
598.61697764137296
20
-499.42572391537112
30
0
11
595.6169866900093
21
-499.42572391537124
31
-5.6337862039035429e-32
0
LINE
5
187
100
AcDbEntity
8
0
100
AcDbLine
10
595.6169866900093
20
-499.42572391537124
30
-5.6337862039035429e-32
11
595.61698758717421
21
-437.70999517158594
31
0
0
ARC
5
188
100
AcDbEntity
8
0
100
AcDbCircle
10
575.61698758717444
20
-437.70999514588277
30
0
40
19.999999999999716
100
AcDbArc
50
0
51
44.999999926365845
0
LINE
5
189
100
AcDbEntity
8
0
100
AcDbLine
10
589.75912322908016
20
-423.56785954032682
30
8.5440393341663158e-30
11
545.54387597542632
21
-379.35261217302536
31
-1.1102230246251565e-15
0
ARC
5
190
100
AcDbEntity
8
0
100
AcDbCircle
10
573.82814725923663
20
-351.06834096191403
30
-1.1102230246251561e-15
40
39.999999999998572
100
AcDbArc
50
189.9999999263656
51
224.9999999263664
0
LINE
5
191
100
AcDbEntity
8
0
100
AcDbLine
10
534.43583712982308
20
-358.01426801796549
30
-1.1102230246251435e-15
11
525.61740810165247
21
-308.00247141706814
31
0
0
LINE
5
192
100
AcDbEntity
8
0
100
AcDbLine
10
525.61740810165247
20
-308.00247141706814
30
0
11
528.57183136146625
21
-307.48152688784535
31
1.1102230246251565e-15
0
LINE
5
193
100
AcDbEntity
8
0
100
AcDbLine
10
528.57183136146625
20
-307.48152688784535
30
1.1102230246251565e-15
11
525.0988678333332
21
-287.78537182315677
31
-1.1102230246251565e-15
0
LINE
5
194
100
AcDbEntity
8
0
100
AcDbLine
10
525.0988678333332
20
-287.78537182315677
30
-1.1102230246251565e-15
11
522.14444457362708
21
-288.30631635236068
31
0
0
LINE
5
195
100
AcDbEntity
8
0
100
AcDbLine
10
522.14444457362708
20
-288.30631635236068
30
0
11
514.79669707170888
21
-246.63516921643014
31
-1.5777218104420236e-29
0
ARC
5
196
100
AcDbEntity
8
0
100
AcDbCircle
10
544.34092966876653
20
-241.42572392439064
30
3.3806325451836212e-43
40
29.999999999996664
100
AcDbArc
50
151.9999999263635
51
189.99999992636813
0
LINE
5
197
100
AcDbEntity
8
0
100
AcDbLine
10
517.85250190110264
20
-227.34157700677258
30
2.3311157865528528e-30
11
578.91467082882787
21
-112.50034022899997
31
-1.1102230246251565e-15
0
ARC
5
198
100
AcDbEntity
8
0
100
AcDbCircle
10
587.74414690153196
20
-117.19505594804131
30
6.1744713584312252e-44
40
10.000000170053511
100
AcDbArc
50
104.79126089695473
51
151.99999992636634
0
ARC
5
199
100
AcDbEntity
8
0
100
AcDbCircle
10
581.61698791868434
20
-93.990359635409249
30
0
40
14.000000000000036
100
AcDbArc
50
-75.208739103045062
51
29.999999999999481
0
LINE
5
200
100
AcDbEntity
8
0
100
AcDbLine
10
593.74134357166656
20
-86.990359635409348
30
0
11
572.74134437532985
21
-50.617294068447876
31
0
0
ARC
5
201
100
AcDbEntity
8
0
100
AcDbCircle
10
560.61698872234501
20
-57.617294068449425
30
0
40
14.000000000003116
100
AcDbArc
50
29.999999999999979
51
179.01727639609459
0
ARC
5
202
100
AcDbEntity
8
0
100
AcDbCircle
10
526.62198971004489
20
-57.034162734790925
30
2.87704090956689e-43
40
19.999999999976069
100
AcDbArc
50
309.99999992636401
51
359.01727639609601
0
LINE
5
203
100
AcDbEntity
8
0
100
AcDbLine
10
539.47774188407004
20
-72.35505161367422
30
6.6018688186260577e-30
11
484.60062048351944
21
-118.40242382076525
31
0
0
ARC
5
204
100
AcDbEntity
8
0
100
AcDbCircle
10
474.95880635298874
20
-106.91175716158924
30
0
40
14.999999999999975
100
AcDbArc
50
224.56550099410657
51
309.99999992636543
0
LINE
5
205
100
AcDbEntity
8
0
100
AcDbLine
10
464.27207588057479
20
-117.43762015756148
30
0
11
448.89385890035123
21
-101.82437684660064
31
-1.1102230246251565e-15
0
ARC
5
206
100
AcDbEntity
8
0
100
AcDbCircle
10
436.42600668253453
20
-114.1045503419015
30
0
40
17.500000000000199
100
AcDbArc
50
44.565500994105385
51
172.00000010502427
0
LWPOLYLINE
5
207
100
AcDbEntity
8
0
100
AcDbPolyline
90
12
70
1
43
0.0
10
516.09240536531161
20
-397.95276037090707
10
491.47660343007976
20
-258.34961038031486
42
0.41421356237309959
10
468.30748481649727
20
-242.12641887340936
10
448.49505745234421
20
-245.61988437103628
42
0.24469844322866866
10
430.17856721811609
20
-259.6746216527921
10
366.67415768032686
20
-395.86026738895418
42
0.54861878663970587
10
389.33185235719475
20
-431.42572393250367
10
390.15530411242486
20
-431.42572393247178
42
0.043660942898113571
10
407.52012187497269
20
-429.90649923374173
10
447.00103729132252
20
-422.94494862288514
42
-0.043660942908512232
10
464.36585505801509
20
-421.42572392415536
10
496.39625030501116
20
-421.42572392424574
42
0.46630765815585851
0
LWPOLYLINE
5
208
100
AcDbEntity
8
0
100
AcDbPolyline
90
10
70
1
43
0.0
10
423.53788396959004
20
-1000.5267806955031
10
423.5378839695901
20
-996.52678069550302
10
396.03788396959021
20
-996.52678069550279
10
396.03788396959061
20
-966.52678069550279
42
-0.41421356237309503
10
406.03788396959078
20
-956.52678069550291
10
456.03788396959067
20
-956.52678069550359
42
-0.41421356237309503
10
466.03788396959055
20
-966.5267806955037
10
466.0378839695901
20
-996.5267806955037
10
438.5378839695901
20
-996.52678069550325
10
438.53788396959004
20
-1000.5267806955034
0
LWPOLYLINE
5
209
100
AcDbEntity
8
0
100
AcDbPolyline
90
14
70
1
43
0.0
10
404.80659101534775
20
-907.78931032171567
10
391.53386937344555
20
-926.74472127864124
10
394.81047755060155
20
-929.03902702404537
10
389.07471318709105
20
-937.23054746693515
10
385.79810500993511
20
-934.93624172153091
10
381.55969957565696
20
-940.98931199426033
10
375.55969957565702
20
-940.98931199426045
10
358.10515382161054
20
-908.98931199426045
10
358.10515382161054
20
-902.98931199426056
10
373.16758602762599
20
-902.98931199426056
10
373.16758602762599
20
-899.98931199426056
10
383.16758602762593
20
-899.98931199426056
10
383.16758602762599
20
-902.98931199426056
10
398.34756553135611
20
-902.98931199426056
0
LWPOLYLINE
5
210
100
AcDbEntity
8
0
100
AcDbPolyline
90
4
70
1
43
0.0
10
211.64726123923822
20
-758.43665301435192
10
216.71868038012636
20
-747.56095956991214
10
212.91218767457241
20
-745.78596287060134
10
207.84076853368421
20
-756.66165631504123
0
CIRCLE
5
211
100
AcDbEntity
8
0
100
AcDbCircle
10
348.83660514795724
20
-837.85638556171853
30
0
40
5.5000000000000053
0
CIRCLE
5
212
100
AcDbEntity
8
0
100
AcDbCircle
10
58.818113296226286
20
-702.61854180470107
30
0
40
5.5000000000000053
0
CIRCLE
5
213
100
AcDbEntity
8
0
100
AcDbCircle
10
122.25965838879242
20
-732.20182012654857
30
0
40
5.5000000000000053
0
CIRCLE
5
214
100
AcDbEntity
8
0
100
AcDbCircle
10
285.39506005539101
20
-808.27310723987102
30
0
40
5.5000000000000053
0
LWPOLYLINE
5
215
100
AcDbEntity
8
0
100
AcDbPolyline
90
14
70
1
43
0.0
10
180.72264336870211
20
-677.81359173805731
10
185.80260485366244
20
-691.770671209684
42
0.4142135623730977
10
275.52249834147375
20
-733.60774463189864
10
289.47957781310151
20
-728.52778314693808
10
298.54265568346807
20
-732.75396576434503
10
376.79805505958245
20
-809.25293613967017
42
-0.31842098298115673
10
385.08891662942358
20
-854.76111603134564
10
378.32702444157263
20
-869.26204062393208
42
-0.41421356237309026
10
365.03776395379941
20
-874.0989358768918
10
20.640804879868888
20
-713.50399641543379
42
-0.41421356237309731
10
15.803909626909107
20
-700.2147359276604
10
22.565801814759784
20
-685.71381133507373
42
-0.31842098298116006
10
62.756353227956545
20
-662.81288559556242
10
171.65956549833584
20
-673.58740912064968
0
CIRCLE
5
216
100
AcDbEntity
8
0
100
AcDbCircle
10
-523.01020161952397
20
-847.38319688490537
30
0
40
11.499999999999954
0
LWPOLYLINE
5
217
100
AcDbEntity
8
0
100
AcDbPolyline
90
4
70
1
43
0.0
10
-232.38489355309969
20
-725.5741782689804
10
-231.68902804518018
20
-720.62283785690829
10
-248.52358521682734
20
-718.2568952339916
10
-249.21945069415571
20
-723.20823557859387
0
LWPOLYLINE
5
218
100
AcDbEntity
8
0
100
AcDbPolyline
90
4
70
1
43
0.0
10
126.17721894276676
20
-958.46870130656862
10
122.6427202202352
20
-975.09721052358577
10
125.77279254343837
20
-975.76252793017989
10
129.30729126596989
20
-959.13401871316285
0
LWPOLYLINE
5
219
100
AcDbEntity
8
0
100
AcDbPolyline
90
4
70
1
43
0.0
10
159.55844209314915
20
-816.81354278586366
10
156.42836976994596
20
-816.14822537926943
10
153.93342949521778
20
-827.88599659128135
10
157.06350181842106
20
-828.55131399787547
0
LWPOLYLINE
5
220
100
AcDbEntity
8
0
100
AcDbPolyline
90
4
70
1
43
0.0
10
38.210971955349144
20
-982.574177667821
10
41.410971955349503
20
-982.574177667821
10
41.410971955349503
20
-960.574177667821
10
38.210971955349095
20
-960.574177667821
0
LWPOLYLINE
5
221
100
AcDbEntity
8
0
100
AcDbPolyline
90
4
70
1
43
0.0
10
191.73725075328286
20
-885.07243897295734
10
188.20275203075136
20
-901.70094818997438
10
192.31097195495533
20
-902.57417728612938
10
195.84547067748704
20
-885.945668069112
0
LWPOLYLINE
5
222
100
AcDbEntity
8
0
100
AcDbPolyline
90
4
70
1
43
0.0
10
-190.68902804325495
20
-730.43283210582274
10
-191.8450460560353
20
-727.4489382816181
10
-207.69698199712332
20
-733.59028397451254
10
-206.54096398434316
20
-736.57417779871707
0
LWPOLYLINE
5
223
100
AcDbEntity
8
0
100
AcDbPolyline
90
4
70
1
43
0.0
10
-196.58902804464907
20
-982.57417615592942
10
-196.58902804464907
20
-960.574177667821
10
-199.78902804464906
20
-960.574177667821
10
-199.78902804464906
20
-982.574177667821
0
LWPOLYLINE
5
224
100
AcDbEntity
8
0
100
AcDbPolyline
90
4
70
1
43
0.0
10
-196.58902804464907
20
-917.57413273629959
10
-196.58902804464907
20
-895.57413273629982
10
-199.78902804464909
20
-895.57413273629982
10
-199.78902804464906
20
-917.57413273629959
0
LWPOLYLINE
5
225
100
AcDbEntity
8
0
100
AcDbPolyline
90
4
70
1
43
0.0
10
41.410971955349453
20
-895.57417766782112
10
38.210971955349073
20
-895.57417766782112
10
38.210971955349073
20
-917.57417766782112
10
41.410971955349424
20
-917.57417766782112
0
CIRCLE
5
226
100
AcDbEntity
8
0
100
AcDbCircle
10
-15.689028045128417
20
-888.57417812103836
30
1.1102230246251565e-15
40
3.999999999999988
0
CIRCLE
5
227
100
AcDbEntity
8
0
100
AcDbCircle
10
81.742837183836642
20
-952.09188288648102
30
1.1102230246251565e-15
40
24.999999999999932
0
LWPOLYLINE
5
228
100
AcDbEntity
8
0
100
AcDbPolyline
90
8
70
1
43
0.0
10
15.38840785512798
20
-815.02755290499056
10
22.524341896660935
20
-801.83367381826997
42
0.41421356237309442
10
14.447081836420228
20
-774.72725631396327
10
-7.5427166414812872
20
-762.83403291138984
42
0.41421356237309281
10
-34.64913414577611
20
-770.91129297162695
10
-41.785068187361702
20
-784.10517205844485
42
0.41421356237309553
10
-33.707808127149008
20
-811.21158956265742
10
-11.71800964922279
20
-823.10481296524426
42
0.41421356237310003
0
LWPOLYLINE
5
229
100
AcDbEntity
8
0
100
AcDbPolyline
90
8
70
1
43
0.0
10
-110.68902805794872
20
-839.57417811758671
10
-110.68902806875855
20
-803.57417811758683
42
0.41421356228881745
10
-122.68902806875846
20
-791.57417812103949
10
-163.68902804032953
20
-791.57417812103949
42
0.41421356237281581
10
-175.68902804032933
20
-803.5741781210279
10
-175.68902804041758
20
-839.57417812102165
42
0.41421356237351908
10
-163.68902804041764
20
-851.57417812103915
10
-122.68902805794866
20
-851.57417812103927
42
0.41421356245736096
0
CIRCLE
5
230
100
AcDbEntity
8
0
100
AcDbCircle
10
160.31097195429084
20
-966.57417812103199
30
-1.1102230246251565e-15
40
22.499999999999943
0
CIRCLE
5
231
100
AcDbEntity
8
0
100
AcDbCircle
10
-101.68902804512791
20
-888.57417812103836
30
0
40
3.9999999999999925
0
LWPOLYLINE
5
232
100
AcDbEntity
8
0
100
AcDbPolyline
90
8
70
1
43
0.0
10
22.310971955322785
20
-956.57417800149028
10
22.310971955070524
20
-918.57417812090534
42
0.41421356237115198
10
2.310971955076182
20
-898.57417812103836
10
-25.689028055440673
20
-898.57417812103813
42
0.41421356237310181
10
-45.689028055440552
20
-918.57417812103836
10
-45.689028055440545
20
-956.5741780873575
42
0.41421356326991804
10
-25.689027994201705
20
-976.5741780873575
10
2.3109720165617023
20
-976.57417800162307
42
0.41421356147821953
0
LWPOLYLINE
5
233
100
AcDbEntity
8
0
100
AcDbPolyline
90
8
70
1
43
0.0
10
94.551682375430914
20
-857.84315715417847
10
101.68761641696386
20
-844.64927806745789
42
0.41421356237309537
10
93.610356356723159
20
-817.54286056315118
10
71.620557878821643
20
-805.64963716057764
42
0.41421356237309437
10
44.514140374526853
20
-813.72689722081486
10
37.37820633294119
20
-826.92077630763265
42
0.41421356237309354
10
45.455466393153934
20
-854.02719381184534
10
67.445264871080141
20
-865.92041721443229
42
0.41421356237309997
0
LWPOLYLINE
5
234
100
AcDbEntity
8
0
100
AcDbPolyline
90
8
70
1
43
0.0
10
173.71495689573382
20
-900.65876140336638
10
180.8508909372668
20
-887.4648823166458
42
0.41421356237309931
10
172.77363087702611
20
-860.35846481233898
10
150.78383239912458
20
-848.46524140976555
42
0.41421356237309537
10
123.67741489482978
20
-856.54250147000266
10
116.54148085324411
20
-869.73638055682056
42
0.41421356237309354
10
124.61874091345689
20
-896.84279806103314
10
146.60853939138315
20
-908.7360214636202
42
0.41421356237309948
0
LWPOLYLINE
5
235
100
AcDbEntity
8
0
100
AcDbPolyline
90
6
70
1
43
0.0
10
-111.68902804512786
20
-888.57417812103836
10
-111.6890280451298
20
-887.48336275304678
42
0.35639395862607065
10
-119.68902804281088
20
-877.68540378238481
42
4.7325283848569564
10
-83.415722352337909
20
-903.46306700992727
42
0.26450144140666504
10
-92.01086884381067
20
-898.57417812103836
10
-101.68902804512791
20
-898.57417812103836
42
-0.41421356237309503
0
ARC
5
236
100
AcDbEntity
8
0
100
AcDbCircle
10
225.49954956845684
20
-897.40205361199639
30
0
40
15.999999999999819
100
AcDbArc
50
61.593179178437701
51
167.00000000000259
0
LINE
5
237
100
AcDbEntity
8
0
100
AcDbLine
10
233.11121235505732
20
-883.32858248284435
30
0
11
280.60917744055428
21
-909.01794440093022
31
1.1102230246251487e-15
0
ARC
5
238
100
AcDbEntity
8
0
100
AcDbCircle
10
272.99751466726315
20
-923.09141550547429
30
-1.2524105024903053e-43
40
15.999999972022996
100
AcDbArc
50
22.129595646075977
51
61.593179178437964
0
LINE
5
239
100
AcDbEntity
8
0
100
AcDbLine
10
287.81886168902219
20
-917.06417054056021
30
0
11
297.8422724684321
21
-941.71232278157515
31
7.8886090522101181e-30
0
ARC
5
240
100
AcDbEntity
8
0
100
AcDbCircle
10
279.31558896705525
20
-949.24637850916702
30
1.1102230246251561e-15
40
19.999999999326235
100
AcDbArc
50
-78.943245877788826
51
22.129594673781057
0
LINE
5
241
100
AcDbEntity
8
0
100
AcDbLine
10
283.15121394251884
20
-968.87513244365425
30
1.1102230246251642e-15
11
227.83408910382403
21
-979.68456773996979
31
1.1102230246251644e-15
0
ARC
5
242
100
AcDbEntity
8
0
100
AcDbCircle
10
223.99846412823123
20
-960.05581380482101
30
1.2086199254801547e-43
40
20.000000000000192
100
AcDbArc
50
202.12959537882188
51
281.05675412221098
0
LINE
5
243
100
AcDbEntity
8
0
100
AcDbLine
10
205.47178065626298
20
-967.58986978613052
30
-1.0946837636644682e-30
11
199.82123867028108
21
-953.69485718215446
31
0
0
ARC
5
244
100
AcDbEntity
8
0
100
AcDbCircle
10
218.34792214225877
20
-946.16080120084075
30
-1.1061499752764025e-42
40
20.000000000010473
100
AcDbArc
50
167.00000000000097
51
202.12959537882284
0
LINE
5
245
100
AcDbEntity
8
0
100
AcDbLine
10
198.86052084654381
20
-941.66178011396141
30
-9.0786495845561876e-30
11
209.90962853189308
21
-893.80283674249529
31
0
0
LWPOLYLINE
5
246
100
AcDbEntity
8
0
100
AcDbPolyline
90
4
70
1
43
0.0
10
263.57679125056217
20
-985.07286944255702
10
259.88252639231831
20
-983.07481798400227
10
254.17377915899198
20
-993.62992125356436
10
257.86804083513016
20
-995.62797099107138
0
LWPOLYLINE
5
247
100
AcDbEntity
8
0
100
AcDbPolyline
90
4
70
1
43
0.0
10
296.98936179662559
20
-914.46668669161704
10
300.68364704526113
20
-916.464749879235
10
306.39239900998962
20
-905.90964916866153
10
302.6981081343211
20
-903.91158507804812
0
CIRCLE
5
248
100
AcDbEntity
8
0
100
AcDbCircle
10
-104.68902804319492
20
-656.57417766782237
30
0
40
17.599999999999952
0
CIRCLE
5
249
100
AcDbEntity
8
0
100
AcDbCircle
10
-152.10048265362866
20
-765.25525454754927
30
1.1102230246251565e-15
40
12.599999999999964
0
LWPOLYLINE
5
250
100
AcDbEntity
8
0
100
AcDbPolyline
90
4
70
1
43
0.0
10
-46.725344580734635
20
-723.45178224468054
10
-54.812736473247874
20
-738.40484522110501
10
-51.118450311015749
20
-740.40290671954278
10
-43.031058531624225
20
-725.44984368193639
0
LWPOLYLINE
5
251
100
AcDbEntity
8
0
100
AcDbPolyline
90
4
70
1
43
0.0
10
-84.419479942714332
20
-801.97432437641169
10
-76.332085420298029
20
-787.02126282237555
10
-80.026373845904857
20
-785.02319922386039
10
-88.113768368321331
20
-799.97626077789619
0
CIRCLE
5
252
100
AcDbEntity
8
0
100
AcDbCircle
10
-544.85644174159836
20
-991.57417892471631
30
1.1102230246251565e-15
40
6.2499999999999831
0
CIRCLE
5
253
100
AcDbEntity
8
0
100
AcDbCircle
10
176.70599586460369
20
-821.55722173727781
30
0
40
4.4999999999999805
0
CIRCLE
5
254
100
AcDbEntity
8
0
100
AcDbCircle
10
-562.1769498172871
20
-981.57417892471642
30
0
40
6.2499999999999831
0
CIRCLE
5
255
100
AcDbEntity
8
0
100
AcDbCircle
10
-579.49745789297572
20
-971.57417892471631
30
-1.1102230246251565e-15
40
6.2499999999999831
0
CIRCLE
5
256
100
AcDbEntity
8
0
100
AcDbCircle
10
128.3284392129539
20
-795.39213025231675
30
1.1102230246251565e-15
40
4.4999999999999805
0
LWPOLYLINE
5
257
100
AcDbEntity
8
0
100
AcDbPolyline
90
6
70
1
43
0.0
10
-491.87846712824751
20
-918.02879436290345
10
-513.83037347726565
20
-944.19005768723537
42
0.82433638527536712
10
-501.47521340994302
20
-959.44740970276814
10
-446.76009355349095
20
-930.35486442060403
42
0.71329306789699898
10
-449.12668063444272
20
-915.4128216536343
10
-473.08461469584023
20
-911.18839147657559
42
0.26794919277707763
0
LINE
5
258
100
AcDbEntity
8
0
100
AcDbLine
10
-458.60263619728164
20
-820.65932148518357
30
0
11
-525.44573085455932
21
-830.05350567746336
31
-3.944304526105059e-30
0
ARC
5
259
100
AcDbEntity
8
0
100
AcDbCircle
10
-523.01020161952397
20
-847.38319688490537
30
0
40
17.500000000000149
100
AcDbArc
50
97.999999894975218
51
225.43449900589499
0
LINE
5
260
100
AcDbEntity
8
0
100
AcDbLine
10
-535.29037511482466
20
-859.85104910272207
30
6.9025329206838799e-30
11
-519.67713180386409
21
-875.22926608294574
31
0
0
ARC
5
261
100
AcDbEntity
8
0
100
AcDbCircle
10
-530.20299479983589
20
-885.9159965553597
30
-1.558944541561359e-43
40
14.999999999999744
100
AcDbArc
50
-39.999999926366506
51
45.434499005894629
0
LINE
5
262
100
AcDbEntity
8
0
100
AcDbLine
10
-518.71232814066025
20
-895.55781068589044
30
-4.7094244280329394e-31
11
-564.75970034775105
21
-950.43493208644122
31
1.1102230246251565e-15
0
ARC
5
263
100
AcDbEntity
8
0
100
AcDbCircle
10
-580.08058922663452
20
-937.57917991241561
30
-4.9921257791571608e-43
40
19.999999999976573
100
AcDbArc
50
270.98272360390496
51
320.00000007363525
0
ARC
5
264
100
AcDbEntity
8
0
100
AcDbCircle
10
-579.49745789297572
20
-971.57417892471631
30
-1.1102230246251565e-15
40
14.000000000003164
100
AcDbArc
50
90.982723603905811
51
240.00000000000063
0
LINE
5
265
100
AcDbEntity
8
0
100
AcDbLine
10
-586.49745789297708
20
-983.69853457770114
30
-1.1102230246251674e-15
11
-550.12439232601605
21
-1004.698533774038
31
0
0
ARC
5
266
100
AcDbEntity
8
0
100
AcDbCircle
10
-543.12439232601605
20
-992.57417812105587
30
1.1102230246251563e-15
40
13.999999999999922
100
AcDbArc
50
239.99999999999994
51
345.20873910304505
0
ARC
5
267
100
AcDbEntity
8
0
100
AcDbCircle
10
-519.91969601338417
20
-998.70133710390337
30
-1.1102230246251561e-15
40
10.000000170053378
100
AcDbArc
50
118.0000000736332
51
165.20873910304562
0
LINE
5
268
100
AcDbEntity
8
0
100
AcDbLine
10
-524.61441173242542
20
-989.87186103119927
30
-1.1102230246251573e-15
11
-409.77317495465371
21
-928.80969210347394
31
-1.1102230246251881e-15
0
ARC
5
269
100
AcDbEntity
8
0
100
AcDbCircle
10
-395.6890280370348
20
-955.29811987114283
30
8.2851771703204809e-43
40
30.000000000001489
100
AcDbArc
50
80.00000007363488
51
118.00000007363347
0
LINE
5
270
100
AcDbEntity
8
0
100
AcDbLine
10
-390.47958274499604
20
-925.75388727408017
30
-9.3244631462114055e-30
11
-348.8084356090659
21
-933.10163477599826
31
0
0
LINE
5
271
100
AcDbEntity
8
0
100
AcDbLine
10
-348.8084356090659
20
-933.10163477599826
30
0
11
-349.32938013826976
21
-936.05605803570461
31
0
0
LINE
5
272
100
AcDbEntity
8
0
100
AcDbLine
10
-349.32938013826976
20
-936.05605803570461
30
0
11
-329.63322507358129
21
-939.52902156383743
31
0
0
LINE
5
273
100
AcDbEntity
8
0
100
AcDbLine
10
-329.63322507358129
20
-939.52902156383743
30
0
11
-329.11228054435844
21
-936.57459830402388
31
9.8607613152626476e-31
0
LINE
5
274
100
AcDbEntity
8
0
100
AcDbLine
10
-329.11228054435844
20
-936.57459830402388
30
9.8607613152626476e-31
11
-279.10048394346182
21
-945.39302733219438
31
3.944304526105059e-30
0
ARC
5
275
100
AcDbEntity
8
0
100
AcDbCircle
10
-286.04641099951311
20
-984.78533746160815
30
1.1102230246251542e-15
40
39.999999999998735
100
AcDbArc
50
45.000000073633814
51
80.000000073634666
0
LINE
5
276
100
AcDbEntity
8
0
100
AcDbLine
10
-257.76213978840178
20
-956.50106617779761
30
1.1102230246251715e-15
11
-213.54689242110061
21
-1000.7163134314519
31
-1.1102230246251723e-15
0
ARC
5
277
100
AcDbEntity
8
0
100
AcDbCircle
10
-199.40475681554449
20
-986.57417778954596
30
4.3790577010150533e-45
40
20.000000000000085
100
AcDbArc
50
225.00000007363425
51
270.00000007363343
0
LINE
5
278
100
AcDbEntity
8
0
100
AcDbLine
10
-199.40475678984157
20
-1006.574177789546
30
3.5579843820747308e-46
11
-137.68902804605659
21
-1006.5741768923808
31
1.5587310879474271e-29
0
LINE
5
279
100
AcDbEntity
8
0
100
AcDbLine
10
-137.68902804605659
20
-1006.5741768923808
30
1.5587310879474271e-29
11
-137.68902804605673
21
-1009.5741678437447
31
9.8607613152626476e-31
0
LINE
5
280
100
AcDbEntity
8
0
100
AcDbLine
10
-137.68902804605673
20
-1009.5741678437447
30
9.8607613152626476e-31
11
-117.68902804605685
21
-1009.5741678437457
31
1.8743380181176237e-30
0
LINE
5
281
100
AcDbEntity
8
0
100
AcDbLine
10
-117.68902804605685
20
-1009.5741678437457
30
1.8743380181176237e-30
11
-117.68902804605672
21
-1006.5741779855414
31
1.1102230246251575e-15
0
LINE
5
282
100
AcDbEntity
8
0
100
AcDbLine
10
-117.68902804605672
20
-1006.5741779855414
30
1.1102230246251575e-15
11
82.310971953942143
21
-1006.574176892381
31
2.9220881028814072e-29
0
LINE
5
283
100
AcDbEntity
8
0
100
AcDbLine
10
82.310971953942143
20
-1006.574176892381
30
2.9220881028814072e-29
11
82.310971953942001
21
-1009.5741678437447
31
-1.1102230246251556e-15
0
LINE
5
284
100
AcDbEntity
8
0
100
AcDbLine
10
82.310971953942001
20
-1009.5741678437447
30
-1.1102230246251556e-15
11
102.31097195394187
21
-1009.5741678437457
31
1.8743380181176237e-30
0
LINE
5
285
100
AcDbEntity
8
0
100
AcDbLine
10
102.31097195394187
20
-1009.5741678437457
30
1.8743380181176237e-30
11
102.310971953942
21
-1006.5741779855414
31
9.8607613152626476e-31
0
LINE
5
286
100
AcDbEntity
8
0
100
AcDbLine
10
102.310971953942
20
-1006.5741779855414
30
9.8607613152626476e-31
11
287.32210576530383
21
-1006.5741771640246
31
-3.4412188048288381e-30
0
LINE
5
287
100
AcDbEntity
8
0
100
AcDbLine
10
287.32285244446894
20
-1006.574177412839
30
-1.1102230246251565e-15
11
302.31097195394085
21
-1006.5741775159538
31
-1.1102230246251565e-15
0
LINE
5
288
100
AcDbEntity
8
0
100
AcDbLine
10
302.31097195394085
20
-1006.5741775159538
30
-1.1102230246251565e-15
11
302.31097195394068
21
-1009.5741678437447
31
0
0
LINE
5
289
100
AcDbEntity
8
0
100
AcDbLine
10
302.31097195394068
20
-1009.5741678437447
30
0
11
322.31097195394057
21
-1009.5741678437457
31
1.8743380181176237e-30
0
LINE
5
290
100
AcDbEntity
8
0
100
AcDbLine
10
322.31097195394057
20
-1009.5741678437457
30
1.8743380181176237e-30
11
322.31097195394068
21
-1006.5741779855414
31
1.1102230246251575e-15
0
LINE
5
291
100
AcDbEntity
8
0
100
AcDbLine
10
322.31097195394068
20
-1006.5741779855414
30
1.1102230246251575e-15
11
362.31097195394051
21
-1006.574178924716
31
3.6157444510954231e-30
0
LINE
5
292
100
AcDbEntity
8
0
100
AcDbLine
10
362.31097195394051
20
-1006.574178924716
30
3.6157444510954231e-30
11
362.31097195401219
21
-983.17284904094436
31
7.8886090522101181e-30
0
LINE
5
293
100
AcDbEntity
8
0
100
AcDbLine
10
362.31097195401219
20
-983.17284904094436
30
7.8886090522101181e-30
11
327.39945979553249
21
-933.31404253945811
31
0
0
ARC
5
294
100
AcDbEntity
8
0
100
AcDbCircle
10
343.78250068131223
20
-921.84251381243723
30
0
40
19.999999999999858
100
AcDbArc
50
180
51
215.00000000000006
0
LINE
5
295
100
AcDbEntity
8
0
100
AcDbLine
10
323.7825006813124
20
-921.84251381243712
30
7.3486034356767335e-31
11
323.7825006813124
21
-910.71402163379048
31
-1.1102230246251565e-15
0
LINE
5
296
100
AcDbEntity
8
0
100
AcDbLine
10
323.7825006813124
20
-910.71402163379048
30
-1.1102230246251565e-15
11
312.3109719550402
21
-894.33098050103763
31
0
0
LINE
5
297
100
AcDbEntity
8
0
100
AcDbLine
10
312.3109719550402
20
-894.33098050103763
30
0
11
288.60700697910278
21
-860.47821002040212
31
1.1102230246251565e-15
0
LINE
5
298
100
AcDbEntity
8
0
100
AcDbLine
10
288.60700697910278
20
-860.47821002040212
30
1.1102230246251565e-15
11
215.85037690176694
21
-821.12763820611758
31
-1.5777218104420236e-29
0
LINE
5
299
100
AcDbEntity
8
0
100
AcDbLine
10
215.85037690176694
20
-821.12763820611758
30
-1.5777218104420236e-29
11
183.99696895675405
21
-813.08438787202942
31
0
0
ARC
5
300
100
AcDbEntity
8
0
100
AcDbCircle
10
191.34168517027706
20
-783.99736060418991
30
1.886498057597285e-42
40
30.00000019228716
100
AcDbArc
50
241.593178401481
51
255.82857463344345
0
LINE
5
301
100
AcDbEntity
8
0
100
AcDbLine
10
177.06981699609452
20
-810.38511894695148
30
-1.1469567695817781e-29
11
133.08571515697378
21
-786.59623566805226
31
-7.8886090522101181e-30
0
ARC
5
302
100
AcDbEntity
8
0
100
AcDbCircle
10
128.3284392129539
20
-795.39213025231675
30
1.1102230246251565e-15
40
9.9999717972124262
100
AcDbArc
50
61.593178401480884
51
140.05618712276245
0
ARC
5
303
100
AcDbEntity
8
0
100
AcDbCircle
10
112.99496718118732
20
-782.55142245493073
30
-5.3643456837434403e-45
40
10.000006734946423
100
AcDbArc
50
241.59317840148074
51
320.05618712276254
0
LINE
5
304
100
AcDbEntity
8
0
100
AcDbLine
10
108.23767461627638
20
-791.34734777014444
30
-3.4701837447151545e-30
11
-36.063502383046639
21
-713.30178782667656
31
0
0
ARC
5
305
100
AcDbEntity
8
0
100
AcDbCircle
10
-17.03434493903152
20
-678.11811026108774
30
4.3089927777988125e-43
40
40.000000000855579
100
AcDbArc
50
199.99999999947684
51
241.59317840148074
0
LINE
5
306
100
AcDbEntity
8
0
100
AcDbLine
10
-54.62204977139676
20
-691.79891599406392
30
-1.1799420624260666e-29
11
-71.799786337599997
21
-644.6034726597394
31
-1.5777218104420236e-29
0
ARC
5
307
100
AcDbEntity
8
0
100
AcDbCircle
10
-104.68902804319492
20
-656.57417766782237
30
0
40
34.999999976565533
100
AcDbArc
50
19.999999999476721
51
159.99999999947659
0
LINE
5
308
100
AcDbEntity
8
0
100
AcDbLine
10
-137.57826974857122
20
-644.60347265913856
30
7.1721565680025589e-30
11
-149.68647387430372
21
-677.87049008379074
31
0
0
ARC
5
309
100
AcDbEntity
8
0
100
AcDbCircle
10
-187.27417870542206
20
-664.18968435049101
30
1.6640419263857203e-43
40
39.999999999794497
100
AcDbArc
50
295.00000000002734
51
339.99999999947681
0
LINE
5
310
100
AcDbEntity
8
0
100
AcDbLine
10
-170.36944823586367
20
-700.4419958317626
30
-2.2312355819460545e-29
11
-183.58047648768451
21
-706.60239947769651
31
3.944304526105059e-30
0
ARC
5
311
100
AcDbEntity
8
0
100
AcDbCircle
10
-192.0328417225071
20
-688.4762437369676
30
0
40
19.999999999999993
100
AcDbArc
50
262.00000007363371
51
295.00000000002728
0
LINE
5
312
100
AcDbEntity
8
0
100
AcDbLine
10
-194.8163037162555
20
-708.28160511537612
30
-7.8886090522100928e-30
11
-241.15719909616516
21
-701.76881705855885
31
1.1102230246251605e-15
0
ARC
5
313
100
AcDbEntity
8
0
100
AcDbCircle
10
-243.94066108991356
20
-721.57417843696749
30
0
40
19.999999999999996
100
AcDbArc
50
82.000000073633814
51
160.0000008329117
0
LINE
5
314
100
AcDbEntity
8
0
100
AcDbLine
10
-262.73451360507102
20
-714.73377584366131
30
0
11
-272.51691474278101
21
-741.61070329324491
31
1.1102230246251565e-15
0
ARC
5
315
100
AcDbEntity
8
0
100
AcDbCircle
10
-291.31076725793838
20
-734.77030069993873
30
0
40
19.99999999999994
100
AcDbArc
50
295.00000000002717
51
340.00000083291161
0
LINE
5
316
100
AcDbEntity
8
0
100
AcDbLine
10
-282.85840202311584
20
-752.89645644066763
30
2.1019476964872144e-44
11
-371.83730007183772
21
-794.3879980150316
31
-3.1554436208840472e-29
0
ARC
5
317
100
AcDbEntity
8
0
100
AcDbCircle
10
-321.12310866290454
20
-903.1449324593998
30
-1.1102230246251402e-15
40
119.99999999999378
100
AcDbArc
50
115.00000000002733
51
127.2953728454027
0
ARC
5
318
100
AcDbEntity
8
0
100
AcDbCircle
10
-412.01173215004223
20
-783.81656986017958
30
-1.9968503116628643e-43
40
29.999999999998245
100
AcDbArc
50
277.99999989497633
51
307.29537284538441
0
LINE
5
319
100
AcDbEntity
8
0
100
AcDbLine
10
-407.83653917569563
20
-813.52461193007809
30
1.0319587952062313e-29
11
-443.7486151623321
21
-818.57172499801038
31
0
0
LINE
5
320
100
AcDbEntity
8
0
100
AcDbLine
10
-443.7486151623321
20
-818.57172499801038
30
0
11
-444.16613445976611
21
-815.60092079102014
31
0
0
LINE
5
321
100
AcDbEntity
8
0
100
AcDbLine
10
-444.16613445976611
20
-815.60092079102014
30
0
11
-459.02015549471622
21
-817.68851727819333
31
-1.1102230246251565e-15
0
LINE
5
322
100
AcDbEntity
8
0
100
AcDbLine
10
-459.02015549471622
20
-817.68851727819333
30
-1.1102230246251565e-15
11
-458.60263619728164
21
-820.65932148518357
31
0
0
LWPOLYLINE
5
323
100
AcDbEntity
8
0
100
AcDbPolyline
90
12
70
1
43
0.0
10
-378.76514158111144
20
-902.43379363245083
10
-239.16199159052016
20
-927.0495955676829
42
0.46630765815585667
10
-215.68902803718163
20
-907.3534405073824
10
-215.68902803727201
20
-875.32304526038615
42
-0.043660942908545712
10
-214.16980333854224
20
-857.95822749369358
10
-207.20825272768576
20
-818.47731207734353
42
0.043660942898151367
10
-205.68902802895562
20
-801.11249431479587
10
-205.68902802892376
20
-800.28904255956559
42
0.54861878663970487
10
-241.25448457247296
20
-777.63134788269736
10
-377.44013030863425
20
-841.13575742048693
42
0.24469844322866147
10
-391.49486759038996
20
-859.45224765471505
10
-394.98833308801693
20
-879.26467501886827
42
0.41421356237309126
0
CIRCLE
5
324
100
AcDbEntity
8
0
100
AcDbCircle
10
-210.94895865020871
20
-674.18014975756807
30
0
40
5.4999999999999343
0
CIRCLE
5
325
100
AcDbEntity
8
0
100
AcDbCircle
10
-325.0213946561326
20
-620.98729926359613
30
0
40
5.4999999999999343
0
CIRCLE
5
326
100
AcDbEntity
8
0
100
AcDbCircle
10
-294.58160190015661
20
-704.61994251354383
30
1.1102230246251565e-15
40
5.4999999999999343
0
CIRCLE
5
327
100
AcDbEntity
8
0
100
AcDbCircle
10
-241.3887514061847
20
-590.54750650762037
30
1.1102230246251565e-15
40
5.4999999999999343
0
LWPOLYLINE
5
328
100
AcDbEntity
8
0
100
AcDbPolyline
90
26
70
1
43
0.0
10
-223.71772574657203
20
-687.34102308872718
10
-241.84479334282739
20
-637.53731418707298
42
0.99999999999999989
10
-294.46758010683959
20
-656.69044221330512
10
-276.34051251058429
20
-706.49415111495932
42
-0.41421356237309898
10
-279.32887489788607
20
-712.90271493551677
10
-304.70057565910616
20
-722.13725880530717
10
-309.83087780899257
20
-708.04186949351924
10
-313.58964829213369
20
-709.40995006682078
10
-318.71995044201731
20
-695.31456075503172
10
-314.96117995887369
20
-693.94648018172938
10
-333.77228784178072
20
-642.26338603850354
10
-337.53105832492389
20
-643.63146661180565
10
-342.66136047480751
20
-629.5360773000167
10
-338.90258999166383
20
-628.16799672671448
10
-344.03289214154699
20
-614.07260741492541
10
-231.26977764723523
20
-573.03019021585692
10
-226.13947549735104
20
-587.12557952764564
10
-222.38070501420776
20
-585.75749895434353
10
-217.25040286432417
20
-599.85288826613248
10
-221.00917334746845
20
-601.22096883943493
10
-202.19806546456144
20
-652.90406298266078
10
-198.43929498141773
20
-651.53598240935867
10
-193.30899283153414
20
-665.6313717211475
10
-197.0677633146779
20
-666.99945229444984
10
-191.93746116479431
20
-681.0948416062389
10
-217.30916192601444
20
-690.32938547602907
42
-0.41421356237310292
0
CIRCLE
5
329
100
AcDbEntity
8
0
100
AcDbCircle
10
-443.50016019330928
20
-771.85790638577873
30
0
40
5.4999999999999858
0
CIRCLE
5
330
100
AcDbEntity
8
0
100
AcDbCircle
10
-359.96148620544233
20
-741.45231564412654
30
0
40
5.4999999999999858
0
CIRCLE
5
331
100
AcDbEntity
8
0
100
AcDbCircle
10
-390.36707694709412
20
-657.91364165625987
30
0
40
5.4999999999999858
0
CIRCLE
5
332
100
AcDbEntity
8
0
100
AcDbCircle
10
-473.90575093496113
20
-688.31923239791217
30
1.1102230246251565e-15
40
5.4999999999999858
0
LWPOLYLINE
5
333
100
AcDbEntity
8
0
100
AcDbPolyline
90
26
70
1
43
0.0
10
-491.48715286187428
20
-678.17037501535776
10
-484.43945820638828
20
-675.6052239392933
10
-485.80753877968732
20
-671.84645345615979
10
-476.41061257182827
20
-668.42625202290287
10
-475.04253199882453
20
-672.18502250522511
10
-399.86712233565311
20
-644.82341103999272
10
-401.2352029089559
20
-641.06464055684921
10
-391.83827670109685
20
-637.64443912359252
10
-390.47019612779343
20
-641.40320960673773
10
-383.42250147189907
20
-638.83805853179592
10
-342.38008427283995
20
-751.60117302604647
10
-349.4277789287537
20
-754.16632410093382
10
-348.05969835544988
20
-757.92509458408085
10
-357.45662456330513
20
-761.34529601733618
10
-358.82470513660616
20
-757.58652553419756
10
-434.00011479948489
20
-784.94813700024656
10
-432.6320342261817
20
-788.70690748339155
10
-442.02896043404087
20
-792.12710891664767
10
-443.39704100734366
20
-788.36833843350394
10
-450.44473566323791
20
-790.93348950844666
10
-457.96917881640212
20
-770.2602518511585
42
-0.41421356237309453
10
-451.9924540417997
20
-757.44312421004247
10
-407.35705455661025
20
-741.19716740285241
42
0.99999999999999989
10
-426.51018258284728
20
-688.57438063884183
10
-471.1455820680369
20
-704.82033744603223
42
-0.41421356237308987
10
-483.96270970915276
20
-698.84361267142992
0
CIRCLE
5
334
100
AcDbEntity
8
0
100
AcDbCircle
10
-530.27638152878899
20
-764.440926665186
30
0
40
4.2500000000000018
0
CIRCLE
5
335
100
AcDbEntity
8
0
100
AcDbCircle
10
-530.27638152878899
20
-745.34904357314929
30
0
40
4.2500000000000018
0
CIRCLE
5
336
100
AcDbEntity
8
0
100
AcDbCircle
10
-549.36826462082581
20
-745.34904357314929
30
1.1102230246251565e-15
40
4.2500000000000018
0
CIRCLE
5
337
100
AcDbEntity
8
0
100
AcDbCircle
10
-549.36826462082581
20
-764.440926665186
30
1.1102230246251565e-15
40
4.2500000000000018
0
CIRCLE
5
338
100
AcDbEntity
8
0
100
AcDbCircle
10
-539.8223230748074
20
-789.89498511916554
30
0
40
4.5000000000000089
0
CIRCLE
5
339
100
AcDbEntity
8
0
100
AcDbCircle
10
-504.82232307480956
20
-754.89498511916759
30
0
40
4.5000000000000071
0
CIRCLE
5
340
100
AcDbEntity
8
0
100
AcDbCircle
10
-574.82232307480535
20
-754.89498511916759
30
0
40
4.5000000000000071
0
CIRCLE
5
341
100
AcDbEntity
8
0
100
AcDbCircle
10
-539.8223230748074
20
-719.89498511916759
30
0
40
4.5000000000000089
0
CIRCLE
5
342
100
AcDbEntity
8
0
100
AcDbCircle
10
-539.8223230748074
20
-754.89498511916759
30
0
40
45.000000000000007
0
CIRCLE
5
343
100
AcDbEntity
8
0
100
AcDbCircle
10
258.95379620006776
20
-678.19665101824876
30
1.1102230246251565e-15
40
4.2500000000000648
0
CIRCLE
5
344
100
AcDbEntity
8
0
100
AcDbCircle
10
258.9537962000677
20
-659.10476792621182
30
1.1102230246251565e-15
40
4.2500000000000648
0
CIRCLE
5
345
100
AcDbEntity
8
0
100
AcDbCircle
10
239.86191310803065
20
-659.10476792621182
30
0
40
4.2500000000000648
0
CIRCLE
5
346
100
AcDbEntity
8
0
100
AcDbCircle
10
239.86191310803065
20
-678.19665101824876
30
0
40
4.2500000000000648
0
CIRCLE
5
347
100
AcDbEntity
8
0
100
AcDbCircle
10
249.40785465404923
20
-703.65070947222864
30
-1.1102230246251565e-15
40
4.5000000000000764
0
CIRCLE
5
348
100
AcDbEntity
8
0
100
AcDbCircle
10
284.40785465404758
20
-668.65070947223012
30
0
40
4.5000000000000746
0
CIRCLE
5
349
100
AcDbEntity
8
0
100
AcDbCircle
10
214.40785465405082
20
-668.65070947223046
30
0
40
4.5000000000000746
0
CIRCLE
5
350
100
AcDbEntity
8
0
100
AcDbCircle
10
249.40785465404915
20
-633.65070947222989
30
-1.1102230246251565e-15
40
4.5000000000000764
0
CIRCLE
5
351
100
AcDbEntity
8
0
100
AcDbCircle
10
249.40785465404917
20
-668.65070947223035
30
-1.1102230246251565e-15
40
45.000000000000696
0
CIRCLE
5
352
100
AcDbEntity
8
0
100
AcDbCircle
10
192.03924164930589
20
-627.1332353280884
30
-1.1102230246251565e-15
40
5.2500000000000178
0
LWPOLYLINE
5
353
100
AcDbEntity
8
0
100
AcDbPolyline
90
8
70
1
43
0.0
10
201.61382817377867
20
-630.01894024810395
42
-0.74303940559735127
10
182.46465512483371
20
-630.01894024810576
10
169.53924164930586
20
-587.13323532808863
10
184.53924164930589
20
-587.13323532808863
10
184.53924164930589
20
-583.13323532808863
10
199.53924164930595
20
-583.13323532808863
10
199.53924164930598
20
-587.13323532808863
10
214.53924164930601
20
-587.13323532808863
0
CIRCLE
5
354
100
AcDbEntity
8
0
100
AcDbCircle
10
128.31607090060163
20
-637.05793719136818
30
1.1102230246251565e-15
40
5.2500000000000293
0
LWPOLYLINE
5
355
100
AcDbEntity
8
0
100
AcDbPolyline
90
8
70
1
43
0.0
10
137.89065742507438
20
-639.94364211138372
42
-0.7430394055973496
10
118.74148437612942
20
-639.94364211138543
10
105.81607090060157
20
-597.05793719136796
10
120.81607090060163
20
-597.05793719136796
10
120.81607090060163
20
-593.05793719136784
10
135.81607090060172
20
-593.05793719136784
10
135.81607090060172
20
-597.05793719136796
10
150.81607090060177
20
-597.05793719136796
0
LWPOLYLINE
5
356
100
AcDbEntity
8
0
100
AcDbPolyline
90
6
70
1
43
0.0
10
281.51261940330232
20
-229.10010019683574
42
-0.25819888974714972
10
282.93182413894129
20
-190.39627793186679
10
284.35957682828837
20
-151.45934026585621
10
36.399490338198106
20
-232.02645624609488
10
22.235588525365202
20
-618.29710809528319
10
273.26488256305828
20
-454.02814104752423
0
LWPOLYLINE
5
357
100
AcDbEntity
8
0
100
AcDbPolyline
90
6
70
1
43
0.0
10
-223.96572754492905
20
-220.41337757333599
42
-0.25819888974717442
10
-225.24982208231984
20
-259.12191799039448
10
-232.71236329039968
20
-484.07737847676196
10
6.2466121168643696
20
-665.45711293546117
10
19.062091440803535
20
-279.13937313535621
10
-222.67389883050927
20
-181.47169333752782
0
LWPOLYLINE
5
358
100
AcDbEntity
8
0
100
AcDbPolyline
90
5
70
1
43
0.0
10
297.59365678233161
20
-277.77970198242849
42
-0.24355644367424575
10
359.59365678233075
20
-280.88668471850889
10
359.59365678233161
20
-145.1983473598824
10
325.59365678233178
20
-179.19834735988221
10
297.59365678233223
20
-151.19834735988215
0
CIRCLE
5
359
100
AcDbEntity
8
0
100
AcDbCircle
10
-528.84911558663362
20
-321.52393578434106
30
0
40
5.1500000000000021
0
CIRCLE
5
360
100
AcDbEntity
8
0
100
AcDbCircle
10
-528.84911558663339
20
-571.52393578434123
30
0
40
5.1500000000000021
0
CIRCLE
5
361
100
AcDbEntity
8
0
100
AcDbCircle
10
-528.84911558663339
20
-501.52393578434112
30
0
40
5.1500000000000021
0
CIRCLE
5
362
100
AcDbEntity
8
0
100
AcDbCircle
10
-528.84911558663373
20
-251.52393578434106
30
0
40
5.1500000000000021
0
LWPOLYLINE
5
363
100
AcDbEntity
8
0
100
AcDbPolyline
90
12
70
1
43
0.0
10
-252.0544724650386
20
-354.07327925171433
10
-308.84911558663561
20
-386.86368174649726
42
0.26794919243113646
10
-313.84911558663543
20
-395.52393578434157
10
-313.84911558663543
20
-427.52393578434169
42
0.26794919243111903
10
-308.84911558663561
20
-436.18418982218577
10
-252.0544724650382
20
-468.97459231696956
42
-0.3318054612254685
10
-247.32770573105003
20
-479.95648562537014
10
-269.05447246503832
20
-570.98319876936762
10
-593.84911558663259
20
-671.52393578434112
10
-593.84911558663339
20
-151.52393578434089
10
-269.0544724650386
20
-252.06467279931582
10
-247.32770573104997
20
-343.0913859433175
42
-0.33180546122537818
0
LWPOLYLINE
5
364
100
AcDbEntity
8
0
100
AcDbPolyline
90
6
70
1
43
0.0
10
-502.01518958009325
20
153.16377731797724
42
-0.25819888974716687
10
-540.45948293787399
20
157.8580619515418
10
-571.92852271688992
20
161.70062522856355
10
-592.85546484012912
20
-137.56858984938407
10
-241.85546484012932
20
-218.60332493445654
10
-241.85546484012721
20
121.39667506554382
0
CIRCLE
5
365
100
AcDbEntity
8
0
100
AcDbCircle
10
517.16268083701493
20
80.560239722400553
30
0
40
6.0000000000000631
0
LWPOLYLINE
5
366
100
AcDbEntity
8
0
100
AcDbPolyline
90
10
70
1
43
0.0
10
436.10741827711308
20
206.84942516636607
42
-0.25819888974716698
10
406.43864457056634
20
181.95436809172335
10
320.16267790148595
20
109.56023628024272
10
320.16267790147288
20
-150.43976371975748
10
584.40821027516427
20
19.528674109708284
42
0.24757231913130037
10
593.58063814259185
20
35.780909842671527
10
598.99377363499002
20
226.12476517611128
42
0.47554606171788538
10
575.49315375665003
20
246.38312956398337
10
463.59945013598713
20
226.44380407813131
42
0.13119095901102804
10
454.25240052581034
20
222.07487307896457
0
LWPOLYLINE
5
367
100
AcDbEntity
8
0
100
AcDbPolyline
90
5
70
1
43
0.0
10
227.88944821230211
20
-110.40042387480021
10
199.8894482123024
20
-82.400423874801007
10
306.47080283484837
20
-82.400423874800524
42
0.20874191067682926
10
305.59779548096526
20
-136.40042387479951
10
201.88944821230251
20
-136.40042387479943
0
LWPOLYLINE
5
368
100
AcDbEntity
8
0
100
AcDbPolyline
90
5
70
1
43
0.0
10
227.70727527426953
20
-36.223315174177785
10
199.70727527427132
20
-8.223315174177106
10
306.28862989681659
20
-8.2233151741822397
42
0.20874191067683021
10
305.41562254293103
20
-62.223315174180989
10
201.70727527426885
20
-62.223315174175831
0
LWPOLYLINE
5
369
100
AcDbEntity
8
0
100
AcDbPolyline
90
5
70
1
43
0.0
10
303.18974998407947
20
25.404043801726992
42
-0.24355644367423634
10
306.29673272016095
20
87.404043801726885
10
170.60839536152812
20
87.404043801725649
10
204.60839536152969
20
53.404043801725521
10
176.60839536152884
20
25.404043801725642
0
LWPOLYLINE
5
370
100
AcDbEntity
8
0
100
AcDbPolyline
90
4
70
1
43
0.0
10
286.5988678799352
20
294.70826913867865
10
272.5988678799352
20
294.70826913867813
10
272.59886787993531
20
291.50826913867809
10
286.59886787993526
20
291.50826913867854
0
LWPOLYLINE
5
371
100
AcDbEntity
8
0
100
AcDbPolyline
90
4
70
1
43
0.0
10
286.59886787993901
20
160.50826913867641
10
286.59886787993889
20
163.70826913867646
10
272.59886787993889
20
163.70826913867597
10
272.59886787993901
20
160.50826913867593
0
CIRCLE
5
372
100
AcDbEntity
8
0
100
AcDbCircle
10
270.59886787994014
20
120.60826913867521
30
0
40
5.5000000000000906
0
CIRCLE
5
373
100
AcDbEntity
8
0
100
AcDbCircle
10
270.59886787993406
20
334.60826913867868
30
0
40
5.5000000000000906
0
CIRCLE
5
374
100
AcDbEntity
8
0
100
AcDbCircle
10
305.38466373913661
20
262.10826913867874
30
-1.1102230246251565e-15
40
4.5000000000000737
0
CIRCLE
5
375
100
AcDbEntity
8
0
100
AcDbCircle
10
236.38466373913866
20
193.10826913867521
30
0
40
4.5000000000000737
0
CIRCLE
5
376
100
AcDbEntity
8
0
100
AcDbCircle
10
236.3846637391367
20
262.10826913867635
30
0
40
4.5000000000000737
0
CIRCLE
5
377
100
AcDbEntity
8
0
100
AcDbCircle
10
305.38466373913855
20
193.10826913867757
30
0
40
4.5000000000000737
0
LWPOLYLINE
5
378
100
AcDbEntity
8
0
100
AcDbPolyline
90
26
70
1
43
0.0
10
144.73642447203571
20
280.96957764725687
10
233.59886787993526
20
294.60826913867675
10
243.51702824285297
20
294.60826913867714
42
0.37902794380754956
10
251.45794806139395
20
301.63780922940697
10
255.70964322016937
20
336.4278814685602
42
-0.74160146330885401
10
283.98887193816932
20
341.36902289254704
10
306.06429719850792
20
297.64756156080074
42
0.20394487663242658
10
310.8530542281344
20
293.60703149723031
10
380.53959096505935
20
272.1661008873898
42
-0.3292575669775179
10
387.59886787993594
20
262.60826913868158
10
387.59886787993815
20
192.60826913868027
42
-0.32925756697751463
10
380.53959096506208
20
183.05043738997148
10
310.85305422813826
20
161.60950678012642
42
0.20394487663243713
10
306.06429719851184
20
157.56897671655554
10
283.98887193817581
20
113.84751538480793
42
-0.74160146330885013
10
255.70964322017576
20
118.78865680879241
10
251.45794806139818
20
153.5787290479457
42
0.37902794380754118
10
243.5170282428569
20
160.60826913867493
10
233.59886787993906
20
160.60826913867456
10
144.73642447203875
20
174.24696063008835
42
0.26199870326111746
10
137.39443264017837
20
171.48185441276735
10
124.19513453865324
20
155.75154348055153
42
-0.70020753820970838
10
113.59886787993928
20
159.60826913867044
10
113.59886787993531
20
295.60826913867254
42
-0.70020753820971438
10
124.19513453864917
20
299.46499479679238
10
137.3944326401753
20
283.73468386457728
42
0.26199870326110997
0
CIRCLE
5
379
100
AcDbEntity
8
0
100
AcDbCircle
10
-36.802078381078097
20
162.72561752923644
30
0
40
4.4999999999999787
0
CIRCLE
5
380
100
AcDbEntity
8
0
100
AcDbCircle
10
55.197921618921626
20
162.72561752923752
30
0
40
4.4999999999999787
0
LWPOLYLINE
5
381
100
AcDbEntity
8
0
100
AcDbPolyline
90
26
70
1
43
0.0
10
69.197921618920176
20
232.22561752923622
10
73.197921618920162
20
232.22561752923625
10
73.197921618920816
20
194.7256175292371
42
-0.41421356237309503
10
69.197921618920972
20
190.72561752923713
42
0.41421356237309243
10
65.197921618921072
20
186.72561752923713
10
65.197921618921569
20
162.72561752923764
42
-0.99999999999999989
10
45.197921618921683
20
162.72561752923741
10
45.197921618921164
20
186.72561752923684
42
0.41421356237310086
10
41.197921618921107
20
190.72561752923676
10
-22.802078381078704
20
190.72561752923599
42
0.41421356237308948
10
-26.802078381078584
20
186.72561752923602
10
-26.802078381078154
20
162.72561752923656
42
-0.99999999999999989
10
-46.80207838107804
20
162.72561752923627
10
-46.80207838107853
20
186.72561752923571
42
0.41421356237310414
10
-50.802078381078616
20
190.72561752923559
42
-0.41421356237309503
10
-54.802078381078665
20
194.72561752923556
10
-54.802078381079426
20
232.22561752923468
10
-50.80207838107944
20
232.22561752923471
10
-50.802078381079774
20
249.2256175292344
10
-54.802078381079767
20
249.22561752923431
10
-54.80207838108047
20
286.72561752923343
42
-0.41421356237309503
10
-50.802078381080591
20
290.72561752923343
10
69.19792161891904
20
290.72561752923497
42
-0.41421356237309503
10
73.197921618919082
20
286.72561752923502
10
73.197921618919821
20
249.22561752923585
10
69.19792161891985
20
249.22561752923576
0
CIRCLE
5
382
100
AcDbEntity
8
0
100
AcDbCircle
10
43.697921618920788
20
206.22561752923647
30
-1.1102230246251565e-15
40
4.999999999999984
0
CIRCLE
5
383
100
AcDbEntity
8
0
100
AcDbCircle
10
43.697921618919402
20
275.22561752923491
30
0
40
4.999999999999984
0
CIRCLE
5
384
100
AcDbEntity
8
0
100
AcDbCircle
10
-25.302078381078999
20
206.22561752923565
30
0
40
4.999999999999984
0
CIRCLE
5
385
100
AcDbEntity
8
0
100
AcDbCircle
10
-25.302078381080385
20
275.22561752923411
30
0
40
4.999999999999984
0
LWPOLYLINE
5
386
100
AcDbEntity
8
0
100
AcDbPolyline
90
6
70
1
43
0.0
10
120.68652644606934
20
-165.90096995193539
42
-0.25819888974716487
10
159.20147933342298
20
-161.82685605012298
10
190.7283583221803
20
-158.49194100181589
10
143.7980188101011
20
137.81456117672442
10
-216.43472302537731
20
137.81456117670797
10
-139.95136454845237
20
-193.4712608502698
0
CIRCLE
5
387
100
AcDbEntity
8
0
100
AcDbCircle
10
-422.18903696130531
20
364.62516086696866
30
-1.1102230246251565e-15
40
6.0000000000001252
0
LWPOLYLINE
5
388
100
AcDbEntity
8
0
100
AcDbPolyline
90
10
70
1
43
0.0
10
-548.47822240526909
20
283.56989830706164
42
-0.25819888974716937
10
-523.58316533062498
20
253.90112460051563
10
-451.18903351914059
20
167.62515793143672
10
-191.18903351913809
20
167.62515793143285
10
-361.15747134861493
20
431.87069030512089
42
0.24757231913129815
10
-377.40970708157863
20
441.04311817254802
10
-567.75356241502027
20
446.45625366493948
42
0.47554606171788388
10
-588.01192680289159
20
422.95563378659858
10
-568.07260131703526
20
311.06193016593517
42
0.13119095901102679
10
-563.70367031786827
20
301.7148805557585
0
ENDSEC
0
SECTION
2
OBJECTS
0
DICTIONARY
5
C
100
AcDbDictionary
3
ACAD_GROUP
350
D
3
ACAD_MLINESTYLE
350
17
0
DICTIONARY
5
D
100
AcDbDictionary
0
DICTIONARY
5
1A
330
C
100
AcDbDictionary
0
DICTIONARY
5
17
100
AcDbDictionary
0
ENDSEC
0
EOF
