0
SECTION
2
HEADER
9
$INSUNITS
70
4
9
$ACADVER
1
AC1014
9
$HANDSEED
5
FFFF
0
ENDSEC
0
SECTION
2
TABLES
0
TABLE
2
VPORT
5
8
100
AcDbSymbolTable
0
ENDTAB
0
TABLE
2
LTYPE
5
5
100
AcDbSymbolTable
0
LTYPE
5
14
100
AcDbSymbolTableRecord
100
AcDbLinetypeTableRecord
2
BYBLOCK
70
0
0
LTYPE
5
15
100
AcDbSymbolTableRecord
100
AcDbLinetypeTableRecord
2
BYLAYER
70
0
0
ENDTAB
0
TABLE
2
LAYER
5
2
100
AcDbSymbolTable
70
2
0
LAYER
5
50
100
AcDbSymbolTableRecord
100
AcDbLayerTableRecord
2
0
70
0
6
CONTINUOUS
0
ENDTAB
0
TABLE
2
STYLE
5
3
100
AcDbSymbolTable
70
1
0
STYLE
5
11
100
AcDbSymbolTableRecord
100
AcDbTextStyleTableRecord
2
STANDARD
70
0
0
ENDTAB
0
TABLE
2
VIEW
5
6
100
AcDbSymbolTable
70
0
0
ENDTAB
0
TABLE
2
UCS
5
7
100
AcDbSymbolTable
70
0
0
ENDTAB
0
TABLE
2
APPID
5
9
100
AcDbSymbolTable
70
2
0
APPID
5
12
100
AcDbSymbolTableRecord
100
AcDbRegAppTableRecord
2
ACAD
70
0
0
ENDTAB
0
TABLE
2
DIMSTYLE
5
A
100
AcDbSymbolTable
70
1
0
ENDTAB
0
TABLE
2
BLOCK_RECORD
5
1
100
AcDbSymbolTable
70
1
0
BLOCK_RECORD
5
1F
100
AcDbSymbolTableRecord
100
AcDbBlockTableRecord
2
*MODEL_SPACE
0
BLOCK_RECORD
5
1B
100
AcDbSymbolTableRecord
100
AcDbBlockTableRecord
2
*PAPER_SPACE
0
ENDTAB
0
ENDSEC
0
SECTION
2
BLOCKS
0
BLOCK
5
20
100
AcDbEntity
100
AcDbBlockBegin
2
*MODEL_SPACE
0
ENDBLK
5
21
100
AcDbEntity
100
AcDbBlockEnd
0
BLOCK
5
1C
100
AcDbEntity
100
AcDbBlockBegin
2
*PAPER_SPACE
0
ENDBLK
5
1D
100
AcDbEntity
100
AcDbBlockEnd
0
ENDSEC
0
SECTION
2
ENTITIES
0
LWPOLYLINE
5
100
100
AcDbEntity
8
0
100
AcDbPolyline
90
4
70
1
43
0.0
10
5.5018395746602478
20
-912.47584283905894
10
-25.208511886429122
20
-912.4758428390561
42
0.99999999999999989
10
-25.208511886430781
20
-930.4758428390561
10
5.5018395746586091
20
-930.47584283905894
42
0.99999999999999989
0
LWPOLYLINE
5
101
100
AcDbEntity
8
0
100
AcDbPolyline
90
4
70
1
43
0.0
10
5.5018395746520943
20
-1001.4758428390589
10
-25.208511886437293
20
-1001.4758428390562
42
0.99999999999999989
10
-25.20851188643887
20
-1019.4758428390562
10
5.5018395746504556
20
-1019.4758428390589
42
0.99999999999999989
0
CIRCLE
5
102
100
AcDbEntity
8
0
100
AcDbCircle
10
11.545902629247831
20
-813.97584283905928
30
0
40
10.000000000000007
0
CIRCLE
5
103
100
AcDbEntity
8
0
100
AcDbCircle
10
44.045902629253639
20
-750.97584283906235
30
0
40
10.000000000000007
0
CIRCLE
5
104
100
AcDbEntity
8
0
100
AcDbCircle
10
196.54590262922193
20
-1097.9758428390764
30
0
40
3.0000000000000027
0
CIRCLE
5
105
100
AcDbEntity
8
0
100
AcDbCircle
10
196.54590262925254
20
-764.1258428390762
30
0
40
3.0000000000000027
0
CIRCLE
5
106
100
AcDbEntity
8
0
100
AcDbCircle
10
196.54590262924614
20
-833.97584283907634
30
0
40
3.0000000000000027
0
CIRCLE
5
107
100
AcDbEntity
8
0
100
AcDbCircle
10
196.5459026292155
20
-1167.8258428390766
30
0
40
3.0000000000000027
0
LWPOLYLINE
5
108
100
AcDbEntity
8
0
100
AcDbPolyline
90
4
70
1
43
0.0
10
-59.454097370766341
20
-968.07584283905294
10
-59.454097370765957
20
-963.87584283905301
10
-71.454097370765965
20
-963.87584283905187
10
-71.454097370766348
20
-968.0758428390518
0
LWPOLYLINE
5
109
100
AcDbEntity
8
0
100
AcDbPolyline
90
4
70
1
43
0.0
10
180.54590262923992
20
-901.87584283907483
10
180.54590262923952
20
-906.07584283907488
10
202.54590262923952
20
-906.07584283907704
10
202.54590262923986
20
-901.875842839077
0
LWPOLYLINE
5
110
100
AcDbEntity
8
0
100
AcDbPolyline
90
4
70
1
43
0.0
10
111.54590262924623
20
-831.87584283906858
10
111.54590262924654
20
-828.67584283906854
10
94.545902629246555
20
-828.67584283906695
10
94.545902629246243
20
-831.87584283906699
0
LWPOLYLINE
5
111
100
AcDbEntity
8
0
100
AcDbPolyline
90
4
70
1
43
0.0
10
400.54590262924
20
-901.87584283909496
10
400.54590262923966
20
-906.075842839095
10
422.54590262923966
20
-906.07584283909716
10
422.54590262924006
20
-901.875842839097
0
LWPOLYLINE
5
112
100
AcDbEntity
8
0
100
AcDbPolyline
90
4
70
1
43
0.0
10
-17.454097370760632
20
-906.0758428390568
10
-17.454097370760245
20
-901.87584283905676
10
-39.454097370760259
20
-901.87584283905471
10
-39.454097370760635
20
-906.07584283905476
0
LWPOLYLINE
5
113
100
AcDbEntity
8
0
100
AcDbPolyline
90
4
70
1
43
0.0
10
245.64590262925063
20
-784.97584283908077
10
245.64590262925265
20
-762.97584283908077
10
242.44590262925269
20
-762.97584283908054
10
242.44590262925067
20
-784.97584283908054
0
LWPOLYLINE
5
114
100
AcDbEntity
8
0
100
AcDbPolyline
90
4
70
1
43
0.0
10
202.54590262922815
20
-1030.075842839077
10
202.54590262922852
20
-1025.875842839077
10
180.54590262922855
20
-1025.8758428390749
10
180.54590262922818
20
-1030.075842839075
0
LWPOLYLINE
5
115
100
AcDbEntity
8
0
100
AcDbPolyline
90
4
70
1
43
0.0
10
94.545902629221686
20
-1100.075842839067
10
94.545902629221388
20
-1103.2758428390671
10
111.54590262922136
20
-1103.2758428390687
10
111.54590262922169
20
-1100.0758428390689
0
LWPOLYLINE
5
116
100
AcDbEntity
8
0
100
AcDbPolyline
90
4
70
1
43
0.0
10
422.54590262922829
20
-1030.0758428390973
10
422.54590262922869
20
-1025.8758428390972
10
400.54590262922864
20
-1025.8758428390952
10
400.54590262922829
20
-1030.0758428390952
0
LWPOLYLINE
5
117
100
AcDbEntity
8
0
100
AcDbPolyline
90
4
70
1
43
0.0
10
-39.454097370771628
20
-1025.8758428390549
10
-39.454097370772018
20
-1030.075842839055
10
-17.454097370772001
20
-1030.0758428390568
10
-17.45409737077162
20
-1025.8758428390568
0
LWPOLYLINE
5
118
100
AcDbEntity
8
0
100
AcDbPolyline
90
4
70
1
43
0.0
10
242.44590262921744
20
-1146.9758428390808
10
242.44590262921542
20
-1168.9758428390808
10
245.64590262921539
20
-1168.975842839081
10
245.6459026292174
20
-1146.975842839081
0
LWPOLYLINE
5
119
100
AcDbEntity
8
0
100
AcDbPolyline
90
22
70
1
43
0.0
10
-95.454097370759285
20
-890.97584283904962
10
-81.454097370759285
20
-890.97584283905098
42
0.99999999999999989
10
-81.454097370756543
20
-860.97584283905098
10
-95.454097370756557
20
-860.97584283904951
10
-95.454097370752876
20
-820.97584283904951
10
-81.454097370752891
20
-820.97584283905076
42
0.99999999999999989
10
-81.454097370750134
20
-790.97584283905076
10
-95.454097370750134
20
-790.97584283904951
10
-95.454097370747846
20
-765.97584283904951
10
14.545902629255423
20
-730.97584283905962
10
483.54590262925569
20
-730.97584283910248
10
483.54590262921261
20
-1200.9758428391028
10
14.545902629212346
20
-1200.9758428390599
10
-95.45409737078451
20
-1165.9758428390498
10
-95.454097370782222
20
-1140.9758428390498
10
-81.454097370782193
20
-1140.975842839051
42
0.99999999999999989
10
-81.454097370779465
20
-1110.975842839051
10
-95.454097370779465
20
-1110.9758428390496
10
-95.454097370775798
20
-1070.9758428390498
10
-81.454097370775784
20
-1070.975842839051
42
0.99999999999999989
10
-81.454097370773042
20
-1040.975842839051
10
-95.454097370773056
20
-1040.9758428390498
0
CIRCLE
5
120
100
AcDbEntity
8
0
100
AcDbCircle
10
-198.34376973945859
20
-944.58863068929782
30
0
40
2.6000000000000312
0
CIRCLE
5
121
100
AcDbEntity
8
0
100
AcDbCircle
10
-198.34376973945865
20
-925.53863068929786
30
0
40
2.6000000000000312
0
LWPOLYLINE
5
122
100
AcDbEntity
8
0
100
AcDbPolyline
90
10
70
1
43
0.0
10
-218.34376973945916
20
-885.53863068929786
10
-218.34376973945916
20
-882.53863068929786
10
-198.34376973945893
20
-882.53863068929786
10
-198.34376973945893
20
-885.53863068929786
10
-108.34376973945783
20
-885.53863068929797
10
-108.3437697394575
20
-1015.5386306892977
42
-0.41421356237309453
10
-128.34376973945717
20
-1035.5386306892976
10
-272.34376973945905
20
-1035.5386306892981
42
-0.41421356237309503
10
-292.34376973945933
20
-1015.5386306892977
10
-292.34376973946007
20
-885.53863068929786
0
CIRCLE
5
123
100
AcDbEntity
8
0
100
AcDbCircle
10
-198.74783062235579
20
-1115.3021223479197
30
0
40
2.599999999999997
0
CIRCLE
5
124
100
AcDbEntity
8
0
100
AcDbCircle
10
-198.74783062235588
20
-1096.2521223479198
30
0
40
2.599999999999997
0
LWPOLYLINE
5
125
100
AcDbEntity
8
0
100
AcDbPolyline
90
10
70
1
43
0.0
10
-218.74783062235593
20
-1056.2521223479198
10
-218.74783062235593
20
-1053.2521223479198
10
-198.74783062235593
20
-1053.2521223479198
10
-198.74783062235593
20
-1056.2521223479198
10
-108.74783062235616
20
-1056.2521223479198
10
-108.74783062235601
20
-1186.2521223479198
42
-0.41421356237309426
10
-128.74783062235582
20
-1206.2521223479196
10
-272.74783062235554
20
-1206.2521223479196
42
-0.41421356237309293
10
-292.74783062235554
20
-1186.2521223479198
10
-292.74783062235576
20
-1056.2521223479198
0
LWPOLYLINE
5
126
100
AcDbEntity
8
0
100
AcDbPolyline
90
8
70
1
43
0.0
10
-321.19634276323484
20
-1177.703194383877
10
-328.19634276323478
20
-1177.703194383877
42
0.41421356237309503
10
-332.19634276323472
20
-1181.7031943838767
10
-332.19634276323472
20
-1193.7031943838767
42
0.41421356237309503
10
-328.19634276323478
20
-1197.703194383877
10
-321.19634276323484
20
-1197.703194383877
42
0.41421356237309503
10
-317.19634276323484
20
-1193.7031943838767
10
-317.19634276323484
20
-1181.7031943838767
42
0.41421356237309503
0
LWPOLYLINE
5
127
100
AcDbEntity
8
0
100
AcDbPolyline
90
8
70
1
43
0.0
10
-346.19634276323472
20
-1177.703194383877
10
-353.19634276323472
20
-1177.703194383877
42
0.41421356237309503
10
-357.19634276323467
20
-1181.7031943838767
10
-357.19634276323467
20
-1193.7031943838767
42
0.41421356237309503
10
-353.19634276323472
20
-1197.703194383877
10
-346.19634276323472
20
-1197.703194383877
42
0.41421356237309503
10
-342.19634276323472
20
-1193.7031943838767
10
-342.19634276323472
20
-1181.7031943838767
42
0.41421356237309503
0
LWPOLYLINE
5
128
100
AcDbEntity
8
0
100
AcDbPolyline
90
8
70
1
43
0.0
10
-321.19634276323484
20
-1151.7031943838767
10
-328.19634276323478
20
-1151.7031943838767
42
0.41421356237309503
10
-332.19634276323472
20
-1155.703194383877
10
-332.19634276323472
20
-1167.703194383877
42
0.41421356237309503
10
-328.19634276323478
20
-1171.7031943838767
10
-321.19634276323484
20
-1171.703194383877
42
0.41421356237309503
10
-317.19634276323484
20
-1167.703194383877
10
-317.19634276323484
20
-1155.703194383877
42
0.41421356237309503
0
LWPOLYLINE
5
129
100
AcDbEntity
8
0
100
AcDbPolyline
90
8
70
1
43
0.0
10
-346.19634276323472
20
-1151.7031943838767
10
-353.19634276323472
20
-1151.7031943838767
42
0.41421356237309503
10
-357.19634276323467
20
-1155.703194383877
10
-357.19634276323467
20
-1167.703194383877
42
0.41421356237309503
10
-353.19634276323472
20
-1171.7031943838767
10
-346.19634276323472
20
-1171.703194383877
42
0.41421356237309503
10
-342.19634276323472
20
-1167.703194383877
10
-342.19634276323472
20
-1155.703194383877
42
0.41421356237309503
0
LWPOLYLINE
5
130
100
AcDbEntity
8
0
100
AcDbPolyline
90
8
70
1
43
0.0
10
-321.1963427632349
20
-1099.7031943838767
10
-328.19634276323484
20
-1099.7031943838767
42
0.41421356237309503
10
-332.19634276323484
20
-1103.7031943838767
10
-332.19634276323484
20
-1115.703194383877
42
0.41421356237310025
10
-328.19634276323478
20
-1119.7031943838767
10
-321.1963427632349
20
-1119.703194383877
42
0.41421356237309503
10
-317.1963427632349
20
-1115.703194383877
10
-317.19634276323484
20
-1103.7031943838767
42
0.41421356237310025
0
LWPOLYLINE
5
131
100
AcDbEntity
8
0
100
AcDbPolyline
90
8
70
1
43
0.0
10
-346.19634276323484
20
-1099.703194383877
10
-353.19634276323478
20
-1099.703194383877
42
0.41421356237309503
10
-357.19634276323472
20
-1103.7031943838767
10
-357.19634276323472
20
-1115.703194383877
42
0.41421356237310025
10
-353.19634276323472
20
-1119.7031943838767
10
-346.19634276323472
20
-1119.703194383877
42
0.41421356237309503
10
-342.19634276323472
20
-1115.703194383877
10
-342.19634276323484
20
-1103.7031943838767
42
0.41421356237309503
0
LWPOLYLINE
5
132
100
AcDbEntity
8
0
100
AcDbPolyline
90
8
70
1
43
0.0
10
-321.1963427632349
20
-1073.7031943838767
10
-328.19634276323484
20
-1073.7031943838767
42
0.4142135623730846
10
-332.19634276323484
20
-1077.7031943838767
10
-332.19634276323484
20
-1089.7031943838767
42
0.41421356237309503
10
-328.19634276323484
20
-1093.7031943838767
10
-321.1963427632349
20
-1093.7031943838767
42
0.4142135623730846
10
-317.1963427632349
20
-1089.703194383877
10
-317.1963427632349
20
-1077.703194383877
42
0.41421356237309503
0
LWPOLYLINE
5
133
100
AcDbEntity
8
0
100
AcDbPolyline
90
8
70
1
43
0.0
10
-346.19634276323484
20
-1073.7031943838767
10
-353.19634276323478
20
-1073.7031943838767
42
0.4142135623730846
10
-357.19634276323472
20
-1077.7031943838767
10
-357.19634276323472
20
-1089.7031943838767
42
0.41421356237309503
10
-353.19634276323478
20
-1093.7031943838767
10
-346.19634276323484
20
-1093.7031943838767
42
0.4142135623730846
10
-342.19634276323484
20
-1089.703194383877
10
-342.19634276323484
20
-1077.703194383877
42
0.41421356237309503
0
LWPOLYLINE
5
134
100
AcDbEntity
8
0
100
AcDbPolyline
90
8
70
1
43
0.0
10
-321.1963427632349
20
-1125.703194383877
10
-328.19634276323484
20
-1125.703194383877
42
0.41421356237308982
10
-332.19634276323472
20
-1129.7031943838767
10
-332.19634276323472
20
-1141.7031943838767
42
0.41421356237309503
10
-328.19634276323478
20
-1145.703194383877
10
-321.19634276323484
20
-1145.703194383877
42
0.41421356237309503
10
-317.19634276323484
20
-1141.7031943838767
10
-317.19634276323484
20
-1129.7031943838767
42
0.41421356237310025
0
LWPOLYLINE
5
135
100
AcDbEntity
8
0
100
AcDbPolyline
90
8
70
1
43
0.0
10
-346.19634276323484
20
-1125.703194383877
10
-353.19634276323478
20
-1125.703194383877
42
0.4142135623730846
10
-357.19634276323472
20
-1129.7031943838767
10
-357.19634276323467
20
-1141.7031943838767
42
0.41421356237309503
10
-353.19634276323472
20
-1145.703194383877
10
-346.19634276323472
20
-1145.703194383877
42
0.41421356237309503
10
-342.19634276323472
20
-1141.7031943838767
10
-342.19634276323472
20
-1129.703194383877
42
0.41421356237310025
0
LWPOLYLINE
5
136
100
AcDbEntity
8
0
100
AcDbPolyline
90
8
70
1
43
0.0
10
-370.19634276323467
20
-1125.703194383877
10
-367.19634276323467
20
-1125.703194383877
10
-367.19634276323472
20
-1065.703194383877
10
-307.19634276323495
20
-1065.703194383877
10
-307.19634276323484
20
-1205.703194383877
10
-367.19634276323461
20
-1205.703194383877
10
-367.19634276323472
20
-1145.703194383877
10
-370.19634276323472
20
-1145.703194383877
0
CIRCLE
5
137
100
AcDbEntity
8
0
100
AcDbCircle
10
-396.27269316788721
20
-1101.7084505228736
30
0
40
4.5000000000000631
0
CIRCLE
5
138
100
AcDbEntity
8
0
100
AcDbCircle
10
-397.01308610331756
20
-1192.9319763172543
30
0
40
4.5000000000000657
0
LWPOLYLINE
5
139
100
AcDbEntity
8
0
100
AcDbPolyline
90
6
70
1
43
0.0
10
-386.27302252000106
20
-1101.7896104502229
10
-387.01341637757076
20
-1193.0131362371194
42
-1.4202273923688391
10
-404.68858877521603
20
-1186.5220901801777
42
0.17363137294255138
10
-401.89958805143584
20
-1178.9276177765867
10
-401.38586279411498
20
-1115.6316496610518
42
0.17363136907725682
10
-404.05122698864182
20
-1107.9929084628538
42
-1.4202274115464348
0
CIRCLE
5
140
100
AcDbEntity
8
0
100
AcDbCircle
10
-463.2486413218619
20
-1084.2457207263712
30
0
40
5.5000000000000373
0
CIRCLE
5
141
100
AcDbEntity
8
0
100
AcDbCircle
10
-463.24864132186457
20
-969.2457207263717
30
0
40
5.5000000000000329
0
LWPOLYLINE
5
142
100
AcDbEntity
8
0
100
AcDbPolyline
90
24
70
1
43
0.0
10
-486.24864132186792
20
-969.24572072638739
10
-483.24864132186792
20
-969.24572072638739
10
-483.24864132186508
20
-954.24572072638739
10
-450.01988476653077
20
-954.24572072637943
42
-0.5127745044665043
10
-453.248641321864
20
-986.56622880206191
42
0.26794919243113646
10
-463.24864132186457
20
-1003.8867368777508
10
-463.24864132186457
20
-1049.604704574992
42
0.26794919243114962
10
-453.24864132186315
20
-1066.9252126506817
10
-441.24864132186531
20
-1073.8534158809546
42
-0.26794919243114068
10
-423.24864132186292
20
-1105.0303304171957
10
-423.24864132186639
20
-1191.6661018838681
10
-483.24864132187258
20
-1202.2457207263715
10
-483.24864132187173
20
-1176.2457207263633
10
-458.2486413218644
20
-1176.2457207263662
42
0.41421356237304507
10
-448.24864132186639
20
-1166.2457207263662
10
-448.24864132186639
20
-1114.2457207263715
42
0.41421356237309709
10
-458.24864132186644
20
-1104.2457207263715
10
-483.2486413218694
20
-1104.2457207263715
10
-483.24864132186923
20
-1093.2457207263867
10
-486.24864132186804
20
-1093.2457207263867
10
-486.24864132186826
20
-1068.2457207263867
10
-483.24864132186468
20
-1068.2457207263867
10
-483.24864132186468
20
-994.2457207263883
10
-486.24864132186786
20
-994.24572072638739
0
CIRCLE
5
143
100
AcDbEntity
8
0
100
AcDbCircle
10
-417.63205992119907
20
-1030.022267299822
30
0
40
4.9999999999999769
0
CIRCLE
5
144
100
AcDbEntity
8
0
100
AcDbCircle
10
-335.0820599211994
20
-1030.0222672998254
30
0
40
4.9999999999999769
0
LWPOLYLINE
5
145
100
AcDbEntity
8
0
100
AcDbPolyline
90
14
70
1
43
0.0
10
-313.85705992119892
20
-1016.5222672998265
42
-0.41421356237309503
10
-303.85705992119944
20
-1026.5222672998268
10
-303.85705992120006
20
-1041.0222672998268
10
-324.3570599212
20
-1041.0222672998259
10
-324.35705992120006
20
-1044.0222672998259
10
-348.35705992119995
20
-1044.0222672998248
10
-348.35705992119989
20
-1041.022267299825
10
-404.35705992119961
20
-1041.0222672998227
10
-404.35705992119972
20
-1044.0222672998225
10
-428.35705992119961
20
-1044.0222672998216
10
-428.35705992119949
20
-1041.0222672998216
10
-448.85705992119938
20
-1041.0222672998207
10
-448.85705992119881
20
-1026.5222672998209
42
-0.41421356237309709
10
-438.8570599211983
20
-1016.5222672998214
0
LWPOLYLINE
5
146
100
AcDbEntity
8
0
100
AcDbPolyline
90
8
70
1
43
0.0
10
-319.44336408008098
20
-975.50805975681317
10
-326.44336408008098
20
-975.50805975681317
42
0.41421356237309503
10
-330.4433640800811
20
-979.50805975681317
10
-330.44336408008098
20
-991.50805975681328
42
0.41421356237310025
10
-326.44336408008093
20
-995.50805975681328
10
-319.44336408008098
20
-995.50805975681328
42
0.41421356237309503
10
-315.44336408008098
20
-991.50805975681328
10
-315.44336408008104
20
-979.50805975681317
42
0.41421356237308982
0
LWPOLYLINE
5
147
100
AcDbEntity
8
0
100
AcDbPolyline
90
8
70
1
43
0.0
10
-344.44336408008104
20
-975.50805975681328
10
-351.4433640800811
20
-975.50805975681328
42
0.41421356237309503
10
-355.44336408008115
20
-979.50805975681328
10
-355.44336408008098
20
-991.5080597568134
42
0.41421356237309503
10
-351.44336408008098
20
-995.50805975681328
10
-344.44336408008104
20
-995.5080597568134
42
0.41421356237310542
10
-340.44336408008098
20
-991.50805975681328
10
-340.4433640800811
20
-979.50805975681317
42
0.41421356237309503
0
LWPOLYLINE
5
148
100
AcDbEntity
8
0
100
AcDbPolyline
90
8
70
1
43
0.0
10
-319.4433640800811
20
-949.50805975681305
10
-326.44336408008115
20
-949.50805975681305
42
0.41421356237309503
10
-330.44336408008115
20
-953.50805975681305
10
-330.4433640800811
20
-965.50805975681317
42
0.41421356237310025
10
-326.44336408008098
20
-969.50805975681305
10
-319.4433640800811
20
-969.50805975681317
42
0.41421356237310542
10
-315.4433640800811
20
-965.50805975681305
10
-315.4433640800811
20
-953.50805975681305
42
0.41421356237309503
0
LWPOLYLINE
5
149
100
AcDbEntity
8
0
100
AcDbPolyline
90
8
70
1
43
0.0
10
-344.44336408008121
20
-949.50805975681317
10
-351.44336408008121
20
-949.50805975681317
42
0.41421356237310025
10
-355.44336408008121
20
-953.50805975681328
10
-355.44336408008115
20
-965.50805975681328
42
0.41421356237309503
10
-351.44336408008115
20
-969.50805975681317
10
-344.4433640800811
20
-969.50805975681317
42
0.41421356237309503
10
-340.4433640800811
20
-965.50805975681317
10
-340.44336408008121
20
-953.50805975681305
42
0.41421356237309503
0
LWPOLYLINE
5
150
100
AcDbEntity
8
0
100
AcDbPolyline
90
8
70
1
43
0.0
10
-319.44336408008132
20
-897.50805975681271
10
-326.44336408008138
20
-897.50805975681271
42
0.41421356237308982
10
-330.44336408008132
20
-901.50805975681283
10
-330.44336408008127
20
-913.50805975681283
42
0.41421356237310025
10
-326.44336408008121
20
-917.50805975681283
10
-319.44336408008132
20
-917.50805975681283
42
0.41421356237309503
10
-315.44336408008132
20
-913.50805975681283
10
-315.44336408008132
20
-901.50805975681283
42
0.41421356237309503
0
LWPOLYLINE
5
151
100
AcDbEntity
8
0
100
AcDbPolyline
90
8
70
1
43
0.0
10
-344.44336408008144
20
-897.50805975681283
10
-351.44336408008144
20
-897.50805975681283
42
0.41421356237308982
10
-355.44336408008144
20
-901.50805975681294
10
-355.44336408008132
20
-913.50805975681294
42
0.41421356237309503
10
-351.44336408008138
20
-917.50805975681305
10
-344.44336408008132
20
-917.50805975681305
42
0.41421356237310542
10
-340.44336408008127
20
-913.50805975681283
10
-340.44336408008132
20
-901.50805975681294
42
0.41421356237310025
0
LWPOLYLINE
5
152
100
AcDbEntity
8
0
100
AcDbPolyline
90
8
70
1
43
0.0
10
-319.44336408008144
20
-871.5080597568126
10
-326.44336408008144
20
-871.5080597568126
42
0.41421356237309503
10
-330.44336408008149
20
-875.50805975681271
10
-330.44336408008132
20
-887.50805975681271
42
0.41421356237309503
10
-326.44336408008138
20
-891.50805975681283
10
-319.44336408008144
20
-891.50805975681283
42
0.41421356237309503
10
-315.44336408008138
20
-887.50805975681271
10
-315.44336408008138
20
-875.50805975681271
42
0.41421356237309503
0
LWPOLYLINE
5
153
100
AcDbEntity
8
0
100
AcDbPolyline
90
8
70
1
43
0.0
10
-344.44336408008149
20
-871.50805975681283
10
-351.44336408008149
20
-871.50805975681283
42
0.41421356237310542
10
-355.44336408008149
20
-875.50805975681283
10
-355.44336408008144
20
-887.50805975681283
42
0.41421356237309503
10
-351.44336408008144
20
-891.50805975681283
10
-344.44336408008144
20
-891.50805975681283
42
0.41421356237309503
10
-340.44336408008144
20
-887.50805975681271
10
-340.44336408008149
20
-875.50805975681271
42
0.41421356237309503
0
LWPOLYLINE
5
154
100
AcDbEntity
8
0
100
AcDbPolyline
90
8
70
1
43
0.0
10
-319.44336408008121
20
-923.50805975681294
10
-326.44336408008121
20
-923.50805975681294
42
0.41421356237310542
10
-330.44336408008127
20
-927.50805975681305
10
-330.44336408008115
20
-939.50805975681305
42
0.41421356237309503
10
-326.44336408008115
20
-943.50805975681294
10
-319.44336408008121
20
-943.50805975681294
42
0.41421356237309503
10
-315.44336408008115
20
-939.50805975681294
10
-315.44336408008115
20
-927.50805975681283
42
0.41421356237309503
0
LWPOLYLINE
5
155
100
AcDbEntity
8
0
100
AcDbPolyline
90
8
70
1
43
0.0
10
-344.44336408008127
20
-923.50805975681294
10
-351.44336408008132
20
-923.50805975681294
42
0.41421356237309503
10
-355.44336408008132
20
-927.50805975681305
10
-355.44336408008121
20
-939.50805975681305
42
0.41421356237309503
10
-351.44336408008121
20
-943.50805975681305
10
-344.44336408008121
20
-943.50805975681305
42
0.41421356237309503
10
-340.44336408008121
20
-939.50805975681305
10
-340.44336408008127
20
-927.50805975681305
42
0.41421356237309503
0
LWPOLYLINE
5
156
100
AcDbEntity
8
0
100
AcDbPolyline
90
8
70
1
43
0.0
10
-368.44336408008138
20
-923.50805975681305
10
-365.44336408008132
20
-923.50805975681305
10
-365.44336408008155
20
-863.50805975681283
10
-305.44336408008144
20
-863.5080597568126
10
-305.44336408008087
20
-1003.5080597568131
10
-365.4433640800811
20
-1003.5080597568134
10
-365.44336408008121
20
-943.50805975681305
10
-368.44336408008127
20
-943.50805975681328
0
CIRCLE
5
157
100
AcDbEntity
8
0
100
AcDbCircle
10
-458.99899752492627
20
-914.03762463331884
30
0
40
4.4999999999999698
0
CIRCLE
5
158
100
AcDbEntity
8
0
100
AcDbCircle
10
-404.5342537441403
20
-921.6921451861225
30
0
40
4.4999999999999698
0
LWPOLYLINE
5
159
100
AcDbEntity
8
0
100
AcDbPolyline
90
13
70
1
43
0.0
10
-414.34460440834971
20
-919.75384184422364
42
-0.90693226130419369
10
-394.53425374414189
20
-921.69214518613467
10
-394.53425374414189
20
-935.69214518632657
10
-434.99899752537374
20
-935.69214518549211
10
-434.99899752543558
20
-938.6921451864323
10
-446.99899752543547
20
-938.69214518618492
10
-446.99899752537362
20
-935.69214518618492
10
-468.9989975253734
20
-935.69214518479134
10
-468.99899752492627
20
-914.03762463311227
42
-0.86174577853981027
10
-449.43534176675644
20
-911.11589765442022
10
-446.71429193687237
20
-920.02267917842937
42
0.32980822820169958
10
-439.05411535586688
20
-925.69214518612057
10
-421.57097878154099
20
-925.69214518612262
42
0.35816800241395591
0
CIRCLE
5
160
100
AcDbEntity
8
0
100
AcDbCircle
10
-403.19263932256803
20
-886.27518238693472
30
0
40
4.499999999999976
0
CIRCLE
5
161
100
AcDbEntity
8
0
100
AcDbCircle
10
-457.65738310335257
20
-878.62066183412026
30
0
40
4.499999999999976
0
LWPOLYLINE
5
162
100
AcDbEntity
8
0
100
AcDbPolyline
90
13
70
1
43
0.0
10
-447.84703243914362
20
-880.55896517602105
42
-0.90693226130419169
10
-467.65738310335104
20
-878.62066183410604
10
-467.65738310334825
20
-864.62066183391448
10
-427.19263932211641
20
-864.62066183475667
10
-427.19263932205394
20
-861.62066183381648
10
-415.19263932205399
20
-861.62066183406637
10
-415.19263932211641
20
-864.62066183406637
10
-393.19263932211669
20
-864.62066183546426
10
-393.19263932256803
20
-886.27518238714333
42
-0.86174577853981349
10
-412.75629508073848
20
-889.1969093658314
10
-415.47734491062073
20
-880.29012784182191
42
0.32980822820169753
10
-423.13752149162519
20
-874.62066183412935
10
-440.62065806595109
20
-874.62066183412367
42
0.35816800241395813
0
CIRCLE
5
163
100
AcDbEntity
8
0
100
AcDbCircle
10
-350.81351384917491
20
-827.02160426562375
30
0
40
5.4999999999999849
0
CIRCLE
5
164
100
AcDbEntity
8
0
100
AcDbCircle
10
-465.81351384917417
20
-827.02160426565058
30
0
40
5.4999999999999805
0
LWPOLYLINE
5
165
100
AcDbEntity
8
0
100
AcDbPolyline
90
21
70
1
43
0.0
10
-465.81351384916366
20
-807.02160426564762
10
-465.81351384916445
20
-804.02160426564762
10
-440.81351384916456
20
-804.02160426564114
10
-440.81351384916286
20
-807.02160426564433
10
-366.81351384916456
20
-807.02160426562523
10
-366.8135138491653
20
-804.02160426562159
10
-341.81351384916536
20
-804.02160426561568
10
-341.81351384916468
20
-807.0216042656142
10
-270.81351384918014
20
-807.02160426559408
10
-263.76043462082822
20
-847.02160426560135
10
-269.76043462082822
20
-847.02160426560317
10
-282.06039100134296
20
-836.70071540322181
42
0.17632698070846992
10
-294.91614319507499
20
-832.02160426560476
10
-319.58852385717773
20
-832.02160426561113
42
0.22773507729241235
10
-335.20101885317376
20
-839.5216042656175
42
-0.52789731905094073
10
-368.134021924862
20
-837.02160426562682
42
0.26794919243114196
10
-385.45453000055403
20
-827.02160426563
10
-431.17249769779534
20
-827.02160426564183
42
0.26794919243113252
10
-448.49300577348998
20
-837.02160426564183
42
-0.51277450446650585
10
-480.81351384915581
20
-840.25036082098165
10
-480.81351384916377
20
-807.02160426565433
0
CIRCLE
5
166
100
AcDbEntity
8
0
100
AcDbCircle
10
-171.01053419122644
20
-793.6364700054196
30
0
40
5.4999999999999849
0
LWPOLYLINE
5
167
100
AcDbEntity
8
0
100
AcDbPolyline
90
12
70
1
43
0.0
10
-221.01053419121911
20
-868.63647000542403
10
-221.0105341912199
20
-860.63647000542403
10
-206.86839856749017
20
-846.49433438169171
42
0.19891236737965742
10
-201.01053419122258
20
-832.35219875796042
10
-201.01053419122616
20
-793.63647000542244
42
-0.41421356237309437
10
-171.01053419122934
20
-763.63647000541982
10
-111.01053419122948
20
-763.63647000541391
10
-111.01053419121936
20
-868.636470005413
10
-161.01053419121925
20
-868.636470005418
10
-161.01053419121894
20
-871.636470005418
10
-181.01053419121888
20
-871.63647000542005
10
-181.01053419121922
20
-868.63647000541982
0
CIRCLE
5
168
100
AcDbEntity
8
0
100
AcDbCircle
10
-460.05726320123705
20
-701.7846762278258
30
0
40
5.4999999999999751
0
CIRCLE
5
169
100
AcDbEntity
8
0
100
AcDbCircle
10
-258.76127756303077
20
-682.29298143381857
30
0
40
5.499999999999984
0
LWPOLYLINE
5
170
100
AcDbEntity
8
0
100
AcDbPolyline
90
6
70
1
43
0.0
10
-298.07791002036942
20
-762.34501640966323
42
-0.73257660084154363
10
-301.91011170320354
20
-747.57881701713268
10
-285.26783645181689
20
-737.14016161750124
42
-0.60739694043214931
10
-273.02791084100102
20
-744.33601238194046
10
-273.61906320732419
20
-755.61587148698072
42
-0.41421356237308743
10
-282.02678713530582
20
-763.18622011507182
0
LINE
5
171
100
AcDbEntity
8
0
100
AcDbLine
10
-424.19299309087887
20
-737.1625164342895
30
0
11
-441.51358610989979
21
-694.29254435951157
31
3.1428391458480397e-32
0
ARC
5
172
100
AcDbEntity
8
0
100
AcDbCircle
10
-460.05726320123705
20
-701.7846762278258
30
0
40
19.999999999999908
100
AcDbArc
50
21.99999999998774
51
176.99999999998818
0
LINE
5
173
100
AcDbEntity
8
0
100
AcDbLine
10
-480.02985389632829
20
-700.73795710296281
30
3.6240468101525152e-32
11
-484.08415504304151
21
-778.09863145630186
31
7.3565704932586629e-33
0
ARC
5
174
100
AcDbEntity
8
0
100
AcDbCircle
10
-478.09237783451414
20
-778.41264719376068
30
0
40
5.999999999999984
100
AcDbArc
50
176.999999999989
51
270.24084084668385
0
LINE
5
175
100
AcDbEntity
8
0
100
AcDbLine
10
-478.06715711429808
20
-784.41259418646587
30
-4.5763252271125253e-35
11
-245.69758284738501
21
-783.43583088731611
31
-4.2163694597991228e-31
0
ARC
5
176
100
AcDbEntity
8
0
100
AcDbCircle
10
-245.72280356760109
20
-777.43588389461092
30
0
40
5.9999999999999378
100
AcDbArc
50
270.24084084668419
51
356.99999999998892
0
LINE
5
177
100
AcDbEntity
8
0
100
AcDbLine
10
-239.73102635907378
20
-777.74989963206974
30
-1.0872140430457581e-32
11
-234.79416872892131
21
-683.54904438365406
31
-8.957978171118446e-33
0
ARC
5
178
100
AcDbEntity
8
0
100
AcDbCircle
10
-258.76127756303077
20
-682.29298143381857
30
0
40
23.99999999999995
100
AcDbArc
50
-3.0000000000114668
51
176.99999999998855
0
LINE
5
179
100
AcDbEntity
8
0
100
AcDbLine
10
-282.72838639714018
20
-681.03691848398307
30
4.3488561721830307e-32
11
-284.05506828885564
21
-706.35151700083827
31
2.4072777293433577e-33
0
ARC
5
180
100
AcDbEntity
8
0
100
AcDbCircle
10
-301.53108514705963
20
-705.43563776658345
30
-1.2487156725550738e-45
40
17.499999999999091
100
AcDbArc
50
302.09746958175992
51
356.99999999998897
0
LINE
5
181
100
AcDbEntity
8
0
100
AcDbLine
10
-292.23226473160537
20
-720.26068207953915
30
-1.6872803823638843e-32
11
-336.25355568186109
21
-747.87247671310888
31
7.9877078283229633e-32
0
ARC
5
182
100
AcDbEntity
8
0
100
AcDbCircle
10
-352.1943906797822
20
-722.45811503376194
30
-3.0858672236840454e-45
40
29.999999999993502
100
AcDbArc
50
266.99999999998425
51
302.09746958176487
0
LINE
5
183
100
AcDbEntity
8
0
100
AcDbLine
10
-353.76446936707839
20
-752.41700107639213
30
2.8489236800793387e-33
11
-406.69603512440494
21
-749.64297526106589
31
9.6044862165209272e-32
0
ARC
5
184
100
AcDbEntity
8
0
100
AcDbCircle
10
-405.64931599954218
20
-729.67038456597516
30
-2.5658541216885078e-46
40
19.999999999999382
100
AcDbArc
50
201.99999999998863
51
266.9999999999888
0
CIRCLE
5
185
100
AcDbEntity
8
0
100
AcDbCircle
10
-162.07615183142627
20
-658.7854170274436
30
0
40
5.4999999999999947
0
LWPOLYLINE
5
186
100
AcDbEntity
8
0
100
AcDbPolyline
90
12
70
1
43
0.0
10
-212.07615183142437
20
-733.78541702744405
10
-212.07615183142457
20
-725.78541702744405
10
-197.93401620769399
20
-711.64328140371299
42
0.19891236737966178
10
-192.07615183142531
20
-697.50114577998204
10
-192.07615183142593
20
-658.7854170274444
42
-0.41421356237309437
10
-162.07615183142707
20
-628.78541702744394
10
-102.0761518314271
20
-628.78541702744258
10
-102.07615183142444
20
-733.78541702744144
10
-152.0761518314244
20
-733.78541702744258
10
-152.07615183142431
20
-736.78541702744258
10
-172.07615183142428
20
-736.78541702744292
10
-172.0761518314244
20
-733.78541702744315
0
LWPOLYLINE
5
187
100
AcDbEntity
8
0
100
AcDbPolyline
90
4
70
1
43
0.0
10
-323.84437917418353
20
-305.57313164189139
10
-323.84437917418353
20
-328.57313164189134
42
0.99999999999999989
10
-320.84437917418347
20
-328.57313164189134
10
-320.84437917418347
20
-305.57313164189139
42
0.99999999999999989
0
LWPOLYLINE
5
188
100
AcDbEntity
8
0
100
AcDbPolyline
90
4
70
1
43
0.0
10
-323.84437917418353
20
-375.57313164189122
10
-323.84437917418353
20
-398.57313164189122
42
0.99999999999999989
10
-320.84437917418347
20
-398.57313164189122
10
-320.84437917418347
20
-375.57313164189122
42
0.99999999999999989
0
LWPOLYLINE
5
189
100
AcDbEntity
8
0
100
AcDbPolyline
90
4
70
1
43
0.0
10
-323.84437917418353
20
-340.57313164189134
10
-323.84437917418353
20
-363.57313164189128
42
0.99999999999999989
10
-320.84437917418347
20
-363.57313164189128
10
-320.84437917418347
20
-340.57313164189134
42
0.99999999999999989
0
LWPOLYLINE
5
190
100
AcDbEntity
8
0
100
AcDbPolyline
90
4
70
1
43
0.0
10
-340.34437917418353
20
-251.07313164189139
10
-340.34437917418353
20
-247.57313164189142
10
-362.34437917418347
20
-247.57313164189142
10
-362.34437917418347
20
-251.07313164189139
0
LWPOLYLINE
5
191
100
AcDbEntity
8
0
100
AcDbPolyline
90
4
70
1
43
0.0
10
-340.34437917418347
20
-67.073131641891621
10
-340.34437917418347
20
-63.573131641891614
10
-362.34437917418347
20
-63.573131641891614
10
-362.34437917418347
20
-67.073131641891649
0
LWPOLYLINE
5
192
100
AcDbEntity
8
0
100
AcDbPolyline
90
4
70
1
43
0.0
10
-390.34437917418347
20
-292.32313164189134
10
-390.34437917418347
20
-287.82313164189134
10
-412.34437917418347
20
-287.82313164189128
10
-412.34437917418342
20
-292.32313164189128
0
LWPOLYLINE
5
193
100
AcDbEntity
8
0
100
AcDbPolyline
90
46
70
1
43
0.0
10
-480.34437917418347
20
-411.07313164189111
10
-480.34437917418347
20
-293.07313164189122
10
-455.34437917418347
20
-293.07313164189122
10
-455.34437917418347
20
-287.07313164189128
10
-480.34437917418347
20
-287.07313164189122
10
-480.3443791741833
20
-199.07313164189137
10
-477.24437917418334
20
-199.07313164189139
10
-477.24437917418334
20
-177.07313164189142
10
-480.34437917418336
20
-177.07313164189139
10
-480.3443791741833
20
-103.07313164189141
10
-444.98904011485592
20
-67.717792582564229
10
-442.79700909317751
20
-69.909823604242334
10
-427.24065990707345
20
-54.353474418138319
10
-429.43269092875141
20
-52.161443396459681
10
-397.20224355045247
20
-19.930996018160766
42
-0.19891236737966031
10
-383.06010792672146
20
-14.073131641891678
10
-369.06010792672146
20
-14.073131641891695
42
-0.1246265130885741
10
-359.54277831168218
20
-16.482780963218538
10
-270.82704955914426
20
-64.482780963218516
42
-0.27537180802661931
10
-260.34437917418347
20
-82.073131641891734
10
-260.34437917418353
20
-287.07313164189145
10
-330.34437917418353
20
-287.07313164189139
10
-330.34437917418353
20
-293.07313164189134
10
-238.34437917418353
20
-293.07313164189145
10
-238.34437917418356
20
-411.07313164189128
10
-330.34437917418353
20
-411.07313164189122
10
-330.34437917418353
20
-417.07313164189122
10
-260.34437917418353
20
-417.07313164189134
10
-260.34437917418342
20
-622.073131641891
42
-0.27537180802661754
10
-270.82704955914437
20
-639.6634823205643
10
-359.54277831168218
20
-687.66348232056419
42
-0.12462651308856891
10
-369.06010792672163
20
-690.073131641891
10
-383.06010792672163
20
-690.07313164189088
42
-0.19891236737965801
10
-397.20224355045252
20
-684.21526726562183
10
-429.43269092875147
20
-651.98481988732283
10
-427.24065990707351
20
-649.79278886564418
10
-442.79700909317768
20
-634.23643967954013
10
-444.98904011485604
20
-636.4284707012182
10
-480.34437917418347
20
-601.07313164189088
10
-480.34437917418336
20
-527.07313164189088
10
-477.24437917418351
20
-527.073131641891
10
-477.24437917418345
20
-505.07313164189094
10
-480.34437917418336
20
-505.07313164189094
10
-480.34437917418347
20
-417.07313164189111
10
-455.34437917418347
20
-417.07313164189111
10
-455.34437917418347
20
-411.07313164189111
0
LWPOLYLINE
5
194
100
AcDbEntity
8
0
100
AcDbPolyline
90
4
70
1
43
0.0
10
-340.34437917418353
20
-456.57313164189122
10
-340.34437917418353
20
-453.07313164189117
10
-362.34437917418347
20
-453.07313164189111
10
-362.34437917418347
20
-456.57313164189122
0
LWPOLYLINE
5
195
100
AcDbEntity
8
0
100
AcDbPolyline
90
4
70
1
43
0.0
10
-340.34437917418359
20
-640.573131641891
10
-340.34437917418359
20
-637.073131641891
10
-362.34437917418353
20
-637.073131641891
10
-362.34437917418359
20
-640.573131641891
0
LWPOLYLINE
5
196
100
AcDbEntity
8
0
100
AcDbPolyline
90
4
70
1
43
0.0
10
-390.34437917418353
20
-416.32313164189122
10
-390.34437917418353
20
-411.82313164189117
10
-412.34437917418347
20
-411.82313164189111
10
-412.34437917418347
20
-416.32313164189111
0
CIRCLE
5
197
100
AcDbEntity
8
0
100
AcDbCircle
10
-139.16468402407909
20
-375.10999261634106
30
0
40
5.500000000000008
0
CIRCLE
5
198
100
AcDbEntity
8
0
100
AcDbCircle
10
-119.67298923006459
20
-576.40597825454745
30
0
40
5.5000000000000169
0
LWPOLYLINE
5
199
100
AcDbEntity
8
0
100
AcDbPolyline
90
6
70
1
43
0.0
10
-199.72502420591169
20
-537.08934579720994
42
-0.73257660084153442
10
-184.95882481338094
20
-533.25714411437593
10
-174.5201694137489
20
-549.89941936576224
42
-0.60739694043215919
10
-181.71602017818799
20
-562.13934497657829
10
-192.99587928322819
20
-561.54819261025534
42
-0.41421356237310952
10
-200.56622791131983
20
-553.14046868227399
0
LINE
5
200
100
AcDbEntity
8
0
100
AcDbLine
10
-174.54252423054191
20
-410.97426272669992
30
0
11
-131.67255215576398
21
-393.65366970767815
31
-7.7787998522951476e-32
0
ARC
5
201
100
AcDbEntity
8
0
100
AcDbCircle
10
-139.16468402407909
20
-375.10999261634106
30
0
40
20.000000000000099
100
AcDbArc
50
-68.000000000009763
51
86.999999999991275
0
LINE
5
202
100
AcDbEntity
8
0
100
AcDbLine
10
-138.11796489921718
20
-355.13740192124988
30
-1.8992824533843607e-33
11
-215.47863925255689
21
-351.08310077453785
31
1.4037172713421498e-31
0
ARC
5
203
100
AcDbEntity
8
0
100
AcDbCircle
10
-215.79265499001565
20
-357.07487798306516
30
0
40
5.9999999999999094
100
AcDbArc
50
86.999999999989484
51
180.24084084668613
0
LINE
5
204
100
AcDbEntity
8
0
100
AcDbLine
10
-221.79260198272078
20
-357.1000987032815
30
1.0886964586592929e-32
11
-220.8158386835629
21
-589.46967297019501
31
-1.7723468991216414e-33
0
ARC
5
205
100
AcDbEntity
8
0
100
AcDbCircle
10
-214.81589169085771
20
-589.44445224997889
30
0
40
6.0000000000000089
100
AcDbArc
50
180.24084084668314
51
266.99999999998892
0
LINE
5
206
100
AcDbEntity
8
0
100
AcDbLine
10
-215.12990742831653
20
-595.4362294585062
30
5.6978473601571294e-34
11
-120.92905217989924
21
-600.37308708865703
31
-1.7092840592811594e-31
0
ARC
5
207
100
AcDbEntity
8
0
100
AcDbCircle
10
-119.67298923006459
20
-576.40597825454745
30
0
40
23.999999999999979
100
AcDbArc
50
-93.000000000009578
51
86.99999999999153
0
LINE
5
208
100
AcDbEntity
8
0
100
AcDbLine
10
-118.4169262802304
20
-552.43886942043798
30
-2.2791389440610379e-33
11
-143.73152479708546
21
-551.1121875287231
31
4.5933595398743233e-32
0
ARC
5
209
100
AcDbEntity
8
0
100
AcDbCircle
10
-142.81564556283152
20
-533.63617067051939
30
8.8778552610422371e-46
40
17.499999999998675
100
AcDbArc
50
212.09746958176103
51
266.99999999999187
0
LINE
5
210
100
AcDbEntity
8
0
100
AcDbLine
10
-157.64068987578665
20
-542.93499108597371
30
2.6900193056047342e-32
11
-185.25248450935851
21
-498.91370013571816
31
5.010188101885856e-32
0
ARC
5
211
100
AcDbEntity
8
0
100
AcDbCircle
10
-159.83812283001387
20
-482.97286513779636
30
1.5655131281128816e-44
40
29.999999999991843
100
AcDbArc
50
176.99999999998462
51
212.09746958176839
0
LINE
5
212
100
AcDbEntity
8
0
100
AcDbLine
10
-189.79700887264249
20
-481.4027864505004
30
5.4360702152288557e-32
11
-187.02298305731796
21
-428.47122069317408
31
-5.0334979376404125e-33
0
ARC
5
213
100
AcDbEntity
8
0
100
AcDbCircle
10
-167.05039236222646
20
-429.51793981803695
30
-6.6370093281009402e-46
40
20.000000000000163
100
AcDbArc
50
111.99999999999122
51
176.99999999998855
0
CIRCLE
5
214
100
AcDbEntity
8
0
100
AcDbCircle
10
-54.42892528190054
20
-589.48113239916995
30
0
40
3.4999999999999969
0
CIRCLE
5
215
100
AcDbEntity
8
0
100
AcDbCircle
10
-8.1910567301995147
20
-643.2148230577842
30
0
40
3.5000000000000013
0
LWPOLYLINE
5
216
100
AcDbEntity
8
0
100
AcDbPolyline
90
19
70
1
43
0.0
10
82.224667436600413
20
-578.93040629264601
10
110.29867211291814
20
-584.85556323802268
10
100.56010049432436
20
-608.959373822271
10
45.651184878979521
20
-597.37057676704273
42
0.3635633998652173
10
11.64049767406909
20
-615.48574076938337
10
2.4921586749017441
20
-638.12867435683097
42
0.11323701145892846
10
1.7864702451855368
20
-642.54478167438617
42
-1.4175067285331038
10
-16.347215316603048
20
-637.42888518104905
42
0.11323701145891467
10
-14.640799325414207
20
-633.29510428881315
10
-11.65356240204998
20
-615.46275105964833
42
0.54842383582731224
10
-36.708639953716634
20
-592.88171892369098
10
-43.89442727800688
20
-594.86855774029311
42
0.11323701145906312
10
-47.829194180831365
20
-596.99402461147338
42
-1.2587579431811957
10
-57.043591357668184
20
-579.82900717659118
42
0.088275802314017937
10
-53.874537361997419
20
-578.33461338715904
42
-0.19657481357048623
10
123.09249187310294
20
-537.17294516926211
10
128.65559500050398
20
-539.42058472975634
10
120.2024806472499
20
-560.34277693593208
10
84.624356361071705
20
-559.15155284589105
42
0.91633117401742625
0
CIRCLE
5
217
100
AcDbEntity
8
0
100
AcDbCircle
10
55.104078632452634
20
-642.29504711437335
30
0
40
4.9999999999999991
0
CIRCLE
5
218
100
AcDbEntity
8
0
100
AcDbCircle
10
137.65407863245264
20
-642.29504711437687
30
0
40
4.9999999999999991
0
LWPOLYLINE
5
219
100
AcDbEntity
8
0
100
AcDbPolyline
90
14
70
1
43
0.0
10
158.8790786324532
20
-628.79504711437778
42
-0.41421356237309503
10
168.87907863245275
20
-638.79504711437824
10
168.87907863245215
20
-653.29504711437824
10
148.37907863245215
20
-653.29504711437733
10
148.37907863245198
20
-656.29504711437733
10
124.37907863245201
20
-656.2950471143763
10
124.37907863245212
20
-653.29504711437619
10
68.379078632452135
20
-653.29504711437392
10
68.379078632452007
20
-656.2950471143738
10
44.379078632452014
20
-656.29504711437278
10
44.379078632452149
20
-653.29504711437278
10
23.87907863245216
20
-653.29504711437198
10
23.879078632452799
20
-638.79504711437198
42
-0.41421356237309609
10
33.879078632453258
20
-628.79504711437232
0
CIRCLE
5
220
100
AcDbEntity
8
0
100
AcDbCircle
10
83.321269662055229
20
-694.01572587952228
30
0
40
5.5000000000000018
0
CIRCLE
5
221
100
AcDbEntity
8
0
100
AcDbCircle
10
198.3212696620545
20
-694.01572587955104
30
0
40
5.5000000000000018
0
LWPOLYLINE
5
222
100
AcDbEntity
8
0
100
AcDbPolyline
90
21
70
1
43
0.0
10
198.32126966201963
20
-714.01572587952001
10
198.32126966201884
20
-717.01572587952001
10
173.32126966201889
20
-717.01572587951387
10
173.32126966201878
20
-714.01572587951136
10
99.321269662020256
20
-714.01572587949295
10
99.321269662019489
20
-717.0157258794959
10
74.321269662019589
20
-717.01572587948931
10
74.321269662020327
20
-714.01572587952705
10
-34.678730337949453
20
-714.01572587950386
10
-28.313827685221064
20
-677.91856918145982
10
-22.404981167148289
20
-678.96045824746284
10
-15.997927350578486
20
-684.33661474188193
42
0.17632698070845892
10
-3.1421751568490919
20
-689.01572587950568
10
52.096279670060227
20
-689.01572587951955
42
0.22773507729241227
10
67.708774666060108
20
-681.51572587952103
42
-0.52789731905094628
10
100.64177773774736
20
-684.01572587952785
42
0.26794919243114201
10
117.96228581343445
20
-694.01572587953353
10
163.68025351068297
20
-694.0157258795449
42
0.26794919243113846
10
181.00076158639519
20
-684.01572587956002
42
-0.5127745044670301
10
213.32126966205013
20
-680.7869693242684
10
213.32126966201963
20
-714.01572587952523
0
CIRCLE
5
223
100
AcDbEntity
8
0
100
AcDbCircle
10
179.08517225482115
20
-597.64769174681282
30
0
40
5.0000000000000044
0
CIRCLE
5
224
100
AcDbEntity
8
0
100
AcDbCircle
10
179.08517225482115
20
-496.04769174681303
30
0
40
5.0000000000000044
0
LWPOLYLINE
5
225
100
AcDbEntity
8
0
100
AcDbPolyline
90
14
70
1
43
0.0
10
192.58517225482115
20
-604.34769174681276
42
-0.41421356237309503
10
182.58517225482115
20
-614.34769174681276
10
168.0851722548212
20
-614.34769174681276
10
168.08517225482115
20
-598.84769174681287
10
165.0851722548212
20
-598.84769174681287
10
165.0851722548212
20
-574.84769174681287
10
168.08517225482117
20
-574.84769174681287
10
168.08517225482117
20
-518.84769174681298
10
165.08517225482112
20
-518.84769174681298
10
165.08517225482112
20
-494.84769174681304
10
168.08517225482115
20
-494.84769174681304
10
168.08517225482117
20
-479.3476917468131
10
182.58517225482115
20
-479.3476917468131
42
-0.41421356237309503
10
192.58517225482112
20
-489.34769174681298
0
CIRCLE
5
226
100
AcDbEntity
8
0
100
AcDbCircle
10
226.15524827222245
20
-600.65162236519814
30
0
40
5.0000000000000044
0
CIRCLE
5
227
100
AcDbEntity
8
0
100
AcDbCircle
10
226.15524827222245
20
-499.05162236519834
30
0
40
5.0000000000000044
0
LWPOLYLINE
5
228
100
AcDbEntity
8
0
100
AcDbPolyline
90
14
70
1
43
0.0
10
239.65524827222248
20
-607.35162236519818
42
-0.41421356237309503
10
229.65524827222248
20
-617.35162236519818
10
215.15524827222251
20
-617.35162236519818
10
215.15524827222242
20
-601.85162236519818
10
212.15524827222251
20
-601.85162236519818
10
212.15524827222251
20
-577.85162236519818
10
215.15524827222248
20
-577.85162236519818
10
215.15524827222248
20
-521.8516223651983
10
212.15524827222242
20
-521.85162236519841
10
212.15524827222242
20
-497.85162236519841
10
215.15524827222242
20
-497.85162236519841
10
215.15524827222248
20
-482.35162236519841
10
229.65524827222248
20
-482.35162236519841
42
-0.41421356237309503
10
239.65524827222242
20
-492.35162236519835
0
CIRCLE
5
229
100
AcDbEntity
8
0
100
AcDbCircle
10
407.1473084110354
20
-437.62919398312988
30
0
40
14.999999999999858
0
LWPOLYLINE
5
230
100
AcDbEntity
8
0
100
AcDbPolyline
90
6
70
1
43
0.0
10
360.80746133189729
20
-434.58399908251039
42
-0.30545910223056671
10
355.44768896107263
20
-436.16401817819815
10
310.84555625809048
20
-422.06127144249621
42
-0.78447766764414062
10
311.4847082592218
20
-412.36986792561771
10
377.36636757028941
20
-400.75315385523459
42
-0.69763143783920367
10
382.08698793998474
20
-408.86453827641606
0
LWPOLYLINE
5
231
100
AcDbEntity
8
0
100
AcDbPolyline
90
6
70
1
43
0.0
10
307.55085357567833
20
-498.95250036914325
42
-0.57966015600634346
10
299.00001099038815
20
-497.47525542965093
10
276.81465716458467
20
-436.52149675064209
42
-0.62212093238404753
10
283.02051315800458
20
-430.04403128217911
10
340.57943968716654
20
-448.24358619192373
42
-0.5320280785378535
10
342.924426279062
20
-456.19829659985299
0
LWPOLYLINE
5
232
100
AcDbEntity
8
0
100
AcDbPolyline
90
38
70
1
43
0.0
10
328.57142003179973
20
-546.43961223309782
42
-0.76134511180447895
10
434.77587744163264
20
-495.93574895193342
42
0.26390622266864955
10
440.35526006266002
20
-497.91889142638576
10
441.82151366634918
20
-497.6603513554943
10
439.80242328658647
20
-486.20952079258007
10
443.7416542986353
20
-485.51492808191244
10
440.26869074529691
20
-465.81877302166839
10
436.32945973324809
20
-466.51336573233601
10
428.51529173823678
20
-422.19701684678694
10
432.45452275028561
20
-421.50242413611932
10
428.98155919694727
20
-401.80626907587532
10
425.04232818489845
20
-402.50086178654294
10
420.70112374322554
20
-377.88066796123792
10
304.49380888778643
20
-398.37115292593359
10
303.97286435478566
20
-395.41672966689703
10
284.27670929454177
20
-398.88969322023519
10
284.79765382754255
20
-401.84411647927175
10
243.43572820103032
20
-409.13733994128216
10
248.22401020758932
20
-422.29303663228438
10
251.04308806994709
20
-421.26697620230789
10
260.27763193973976
20
-446.63867696352725
10
257.45855407738185
20
-447.66473739350374
10
282.08400439682896
20
-515.32260609008893
10
284.9030822591867
20
-514.29654566011197
10
294.13762612897938
20
-539.66824642133145
10
291.31854826662152
20
-540.69430685130828
10
291.44177078416004
20
-541.03285793581381
42
-0.26254831662374023
10
289.83345648024789
20
-550.72502274664953
10
250.47141164343742
20
-599.60536093159646
10
250.36669720481373
20
-605.60444710253466
10
268.36395571762853
20
-605.9185904184061
10
290.5441158024953
20
-585.12175506536676
42
-0.64866849845457686
10
298.96283922758005
20
-588.65789168084405
10
299.35923426747627
20
-606.45961501796239
10
317.92779453688559
20
-606.78373044308876
42
0.38524443686492132
10
323.99123431062009
20
-601.48720557247157
10
329.19979393718364
20
-557.31116542899281
42
0.073103738985365735
10
328.95039985199611
20
-548.58891359737981
0
CIRCLE
5
233
100
AcDbEntity
8
0
100
AcDbCircle
10
426.22404077364661
20
-545.29588108463759
30
0
40
15.000000000000053
0
LWPOLYLINE
5
234
100
AcDbEntity
8
0
100
AcDbPolyline
90
6
70
1
43
0.0
10
432.18955987522304
20
-596.67106938851725
42
-0.30545910223053824
10
433.29643157929354
20
-591.19398483188297
10
457.06338912525786
20
-567.75383453738004
42
-0.697631437839216
10
465.55533645437328
20
-571.74953778743475
10
459.72479243891178
20
-638.39296083769898
42
-0.78447766764414617
10
450.12597340571682
20
-639.87434214428151
0
LWPOLYLINE
5
235
100
AcDbEntity
8
0
100
AcDbPolyline
90
6
70
1
43
0.0
10
376.03136969179343
20
-658.24757332393119
42
-0.57966015600633392
10
373.81449107864938
20
-649.8580196561694
10
413.32299219215042
20
-610.89277969139903
42
-0.53202807853785161
10
421.45181157353488
20
-612.53554420739601
10
444.59870267565759
20
-668.28924591776513
42
-0.62212093238403732
10
438.68676190739359
20
-675.0360350695571
0
LWPOLYLINE
5
236
100
AcDbEntity
8
0
100
AcDbPolyline
90
38
70
1
43
0.0
10
365.73137139481298
20
-522.85419820585651
42
-0.76134511180447961
10
324.67601892962819
20
-633.05621730713892
10
322.50186603821385
20
-632.86600357636803
42
0.07310373898541217
10
313.79106888140831
20
-633.3777528477849
10
270.23708779068414
20
-642.41668792281655
42
0.38524443686496246
10
265.48918139334938
20
-648.91867703668959
10
267.43042012346461
20
-667.3883298076596
10
285.19895063292188
20
-666.23169402511951
42
-0.64866849845457764
10
289.45537127408863
20
-674.31018705271083
10
270.6708024847614
20
-698.21850856407605
10
272.55231482357885
20
-716.11990268070497
10
278.51944619578842
20
-715.49273190109932
10
323.7831516827473
20
-672.02026934835374
42
-0.26254831662374506
10
333.29826105260446
20
-669.5733473430106
10
333.64626339806125
20
-669.66659429043989
10
334.42272053336887
20
-666.76881681157238
10
360.50271784317363
20
-673.75693102934076
10
359.726260707866
20
-676.65470850820793
10
429.27292020067904
20
-695.28967975559044
10
430.04937733598609
20
-692.39190227672316
10
456.1293746457909
20
-699.38001649449131
10
455.35291751048373
20
-702.27779397335871
10
468.87587907853026
20
-705.90126060479395
10
472.53642027393261
20
-664.06108328494065
10
475.52500436820787
20
-664.32255051318396
10
477.26811922316136
20
-644.39865655134895
10
474.27953512888615
20
-644.13718932310587
10
484.56391277311189
20
-526.58621494828049
10
459.65904532081822
20
-524.40732137958878
10
460.0076682918089
20
-520.42254258722187
10
440.08377432997395
20
-518.67942773226832
10
439.73515135898322
20
-522.66420652463535
10
394.9063899448546
20
-518.74219810099009
10
395.25501291584527
20
-514.75741930862318
10
375.33111895401026
20
-513.01430445366975
10
374.9824959830197
20
-516.99908324603678
10
363.39926396577454
20
-515.98568175753712
10
363.26950013979422
20
-517.46888907549885
42
0.26390622266864316
0
LWPOLYLINE
5
237
100
AcDbEntity
8
0
100
AcDbPolyline
90
4
70
1
43
0.0
10
353.09015981066233
20
-221.98890762195106
42
-0.99999999999999989
10
353.09015981066233
20
-253.988907621951
10
300.36444863591521
20
-253.98890762195089
42
-0.99999999999999989
10
300.36444863591515
20
-221.98890762195077
0
LWPOLYLINE
5
238
100
AcDbEntity
8
0
100
AcDbPolyline
90
6
70
1
43
0.0
10
400.74543086986716
20
-325.96101714353188
42
-0.62103511337684048
10
395.7089056834937
20
-343.16615772079172
10
320.13023920226419
20
-356.49271578739842
42
-0.77055195647654173
10
313.648601860567
20
-342.44441313012373
10
363.63374734296713
20
-301.18776401464356
42
-0.37472335698102816
10
374.14460483375109
20
-301.47195421015283
0
CIRCLE
5
239
100
AcDbEntity
8
0
100
AcDbCircle
10
419.84300059484792
20
-267.98890762195106
30
0
40
35.00000000000005
0
LWPOLYLINE
5
240
100
AcDbEntity
8
0
100
AcDbPolyline
90
6
70
1
43
0.0
10
356.46096054203127
20
-267.98890762195083
42
-0.70323215655836446
10
361.55341246239317
20
-282.15874825512805
10
296.93545251521084
20
-335.49300334972884
42
-0.63422472452115641
10
283.84300059484906
20
-329.32316271655162
10
283.843000594849
20
-279.98890762195083
42
-0.41421356237310025
10
295.843000594849
20
-267.98890762195083
0
LWPOLYLINE
5
241
100
AcDbEntity
8
0
100
AcDbPolyline
90
27
70
1
43
0.0
10
475.61729588271089
20
-329.93774272475594
10
485.84300059484701
20
-342.24010861954116
10
485.8430005948469
20
-348.16937120409159
10
475.07424278445922
20
-403.56982744432833
10
469.18447968374596
20
-402.42497347206472
10
450.05171074130516
20
-369.2860455742798
42
0.31529878887909696
10
429.25823911221687
20
-359.58989051398385
10
377.71608601649029
20
-368.67816274859257
10
377.19514148349589
20
-365.7237394895667
10
350.60533215216589
20
-370.41224028656961
10
351.12627668516524
20
-373.36666354559873
10
280.22011846828389
20
-385.8693323376184
10
279.69917393528601
20
-382.91490907858127
10
253.10936460395396
20
-387.6034098755718
10
253.63030913702377
20
-390.55783313461336
10
239.84300059484937
20
-392.988907621951
10
239.84300059484946
20
-212.98890762195066
10
264.84300059484923
20
-212.98890762195072
10
264.84300059484929
20
-208.98890762195072
10
284.84300059484906
20
-208.98890762195072
10
284.84300059484912
20
-212.98890762195074
10
329.84300059484872
20
-212.98890762195089
10
329.84300059484866
20
-208.98890762195089
10
349.84300059484849
20
-208.98890762195094
10
349.84300059484849
20
-212.98890762195094
10
469.84300059484747
20
-212.98890762195086
10
469.84300059484747
20
-313.95737106694628
42
0.17512734250671555
0
CIRCLE
5
242
100
AcDbEntity
8
0
100
AcDbCircle
10
360.74452746552339
20
-108.12519659317451
30
0
40
28.000000000000025
0
CIRCLE
5
243
100
AcDbEntity
8
0
100
AcDbCircle
10
452.60054742796569
20
-128.66375962849244
30
0
40
4.5000000000000133
0
CIRCLE
5
244
100
AcDbEntity
8
0
100
AcDbCircle
10
475.49576860702012
20
-40.356972306004167
30
0
40
4.5
0
LWPOLYLINE
5
245
100
AcDbEntity
8
0
100
AcDbPolyline
90
6
70
1
43
0.0
10
290.30888621900044
20
-93.703073345046235
10
282.25560235758059
20
-83.800052410476098
42
0.70595496115429457
10
271.60054742796575
20
-87.585612290235204
10
271.60054742796575
20
-112.58451040205858
42
0.70862473365242473
10
282.28243044051453
20
-116.33683920652174
10
290.35359969069327
20
-106.26622115224259
42
0.35328009833318297
0
LWPOLYLINE
5
246
100
AcDbEntity
8
0
100
AcDbPolyline
90
6
70
1
43
0.0
10
329.54165151776249
20
-141.94710679804507
42
-0.57223337528758189
10
323.51970841293792
20
-158.10445079594902
10
286.52926399092229
20
-164.62686417594753
42
-0.6918563967587138
10
276.98964385990007
20
-148.52490530487668
10
297.98293808471607
20
-122.33099940523968
42
-0.47789064687277261
10
313.54450132056292
20
-122.27561427840652
0
LWPOLYLINE
5
247
100
AcDbEntity
8
0
100
AcDbPolyline
90
4
70
1
43
0.0
10
362.60054742796569
20
-26.356972306004714
42
-0.99999999999999989
10
362.60054742796558
20
-58.356972306004728
10
322.60054742796564
20
-58.356972306004948
42
-0.99999999999999989
10
322.60054742796575
20
-26.356972306004923
0
LWPOLYLINE
5
248
100
AcDbEntity
8
0
100
AcDbPolyline
90
31
70
1
43
0.0
10
337.60054742796564
20
-17.356972306004867
10
475.37835016340364
20
-17.356972306004142
10
484.47883731175324
20
-35.963286308342944
42
-0.55467189402023032
10
475.49576860702012
20
-50.356972306004181
10
432.60054742796581
20
-50.356972306004394
42
0.77379453204843274
10
419.96773763987221
20
-99.081675095212759
10
466.3320939900409
20
-124.85592174442344
42
-0.32458221239862389
10
475.25559190034187
20
-144.02297020757609
10
464.9548765814547
20
-197.01555656872421
10
458.9548765814547
20
-195.84927471389807
10
450.37865654681241
20
-165.62242753070001
42
0.33537104297552633
10
419.5937945596566
20
-142.35697230600454
10
409.59379455965677
20
-142.35697230600459
42
0.38263455144079389
10
377.78372976233368
20
-170.87562521183028
10
365.47363284967548
20
-173.04622743263434
10
364.95268831667465
20
-170.09180417359778
10
338.36287898534499
20
-174.78030497060502
10
338.88382351834582
20
-177.73472822964152
10
267.9776653014668
20
-190.237397021661
10
267.45672076846557
20
-187.28297376262444
10
240.86691143713594
20
-191.97147455963164
10
241.38785597013722
20
-194.92589781866837
10
227.60054742796586
20
-197.35697230600553
10
227.60054742796569
20
-17.356972306005428
10
252.60054742796569
20
-17.356972306005297
10
252.60054742796569
20
-13.356972306005295
10
272.60054742796569
20
-13.356972306005188
10
272.60054742796564
20
-17.35697230600519
10
317.60054742796564
20
-17.356972306004966
10
317.60054742796564
20
-13.356972306004948
10
337.60054742796564
20
-13.356972306004851
0
CIRCLE
5
249
100
AcDbEntity
8
0
100
AcDbCircle
10
185.41097213606491
20
-144.08328260593618
30
0
40
5.4999999999999787
0
CIRCLE
5
250
100
AcDbEntity
8
0
100
AcDbCircle
10
185.41097213606753
20
-29.083282605937192
30
0
40
5.4999999999999734
0
LWPOLYLINE
5
251
100
AcDbEntity
8
0
100
AcDbPolyline
90
21
70
1
43
0.0
10
205.41097213607065
20
-29.083282605952718
10
208.41097213607065
20
-29.083282605952718
10
208.41097213607065
20
-54.083282605952583
10
205.4109721360675
20
-54.083282605953485
10
205.41097213606741
20
-128.08328260595164
10
208.410972136071
20
-128.08328260595164
10
208.41097213607074
20
-153.0832826059515
10
205.41097213607196
20
-153.08328260595147
10
205.41097213607407
20
-224.08328260593578
10
165.41097213606469
20
-231.13636183427744
10
165.41097213606474
20
-225.13636183427752
10
175.73186099844915
20
-212.83640545376534
42
0.17632698070846844
10
180.41097213606949
20
-199.98065326003467
10
180.41097213606952
20
-175.30827259793185
42
0.22773507729240935
10
172.91097213606722
20
-159.69577760193405
42
-0.52789731905094062
10
175.41097213606628
20
-126.76277453024656
42
0.26794919243114235
10
185.41097213606753
20
-109.44226645455707
10
185.4109721360675
20
-63.724298757316035
42
0.26794919243113358
10
175.41097213607202
20
-46.403790681618688
42
-0.51277450446650641
10
172.18221558074043
20
-14.08328260595227
10
205.41097213606787
20
-14.083282605952771
0
LWPOLYLINE
5
252
100
AcDbEntity
8
0
100
AcDbPolyline
90
12
70
1
43
0.0
10
38.230632519361464
20
-30.590084408119111
10
112.43847641061906
20
-30.5900844081191
42
0.34543029620376897
10
117.2946854711836
20
-26.780560598595269
42
-0.88648363312872347
10
148.83455446499011
20
-30.590084408119083
10
148.83455446499053
20
-225.59008440811877
42
-0.88648363312872414
10
117.29468547118401
20
-229.39960821764254
42
0.34543029620377325
10
112.43847641061947
20
-225.59008440811874
10
38.23063251936189
20
-225.59008440811877
42
0.34543029620377635
10
33.374423458797303
20
-229.39960821764257
42
-0.88648363312872414
10
1.8345544649908283
20
-225.59008440811874
10
1.8345544649903971
20
-30.590084408119075
42
-0.88648363312872513
10
33.374423458796933
20
-26.780560598595329
42
0.34543029620377086
0
CIRCLE
5
253
100
AcDbEntity
8
0
100
AcDbCircle
10
132.83455446499013
20
-30.5900844081191
30
0
40
5.4999999999999885
0
CIRCLE
5
254
100
AcDbEntity
8
0
100
AcDbCircle
10
132.83455446499056
20
-225.59008440811874
30
0
40
5.4999999999999885
0
LWPOLYLINE
5
255
100
AcDbEntity
8
0
100
AcDbPolyline
90
24
70
1
43
0.0
10
47.834554464990369
20
-55.090084408119068
10
22.834554464990411
20
-55.090084408119068
10
22.834554464990504
20
-98.09008440811894
10
21.849923425695181
20
-100.79533595507699
42
0.087488663525924382
10
18.834554464990553
20
-117.89634312136081
10
18.834554464990589
20
-138.28382569487695
42
0.087488663525924548
10
21.849923425695192
20
-155.38483286116045
10
22.834554464990624
20
-158.09008440811883
10
22.834554464990717
20
-201.09008440811877
10
47.834554464990653
20
-201.0900844081188
10
47.834554464990653
20
-198.0900844081188
10
102.83455446499056
20
-198.09008440811877
10
102.83455446499055
20
-201.09008440811877
10
127.8345544649905
20
-201.09008440811877
10
127.8345544649904
20
-158.09008440811883
10
128.8191855042858
20
-155.3848328611605
42
0.087488663525922744
10
131.83455446499036
20
-138.28382569487701
10
131.83455446499033
20
-117.8963431213609
42
0.087488663525931987
10
128.81918550428563
20
-100.79533595507706
10
127.8345544649903
20
-98.090084408118926
10
127.83455446499019
20
-55.090084408119054
10
102.83455446499026
20
-55.090084408119054
10
102.83455446499026
20
-58.09008440811904
10
47.834554464990362
20
-58.090084408119047
0
CIRCLE
5
256
100
AcDbEntity
8
0
100
AcDbCircle
10
17.834554464990369
20
-30.5900844081191
30
0
40
5.4999999999999885
0
CIRCLE
5
257
100
AcDbEntity
8
0
100
AcDbCircle
10
17.834554464990777
20
-225.59008440811874
30
0
40
5.4999999999999885
0
LWPOLYLINE
5
258
100
AcDbEntity
8
0
100
AcDbPolyline
90
12
70
1
43
0.0
10
111.53348393775899
20
-255.83719761955558
10
185.74132782901657
20
-255.83719761955564
42
0.3454302962037698
10
190.59753688958111
20
-252.02767381003184
42
-0.88648363312872591
10
222.1374058833876
20
-255.83719761955567
10
222.13740588338723
20
-450.83719761955558
42
-0.88648363312872924
10
190.59753688958071
20
-454.64672142907938
42
0.34543029620376048
10
185.7413278290162
20
-450.83719761955558
10
111.53348393775865
20
-450.83719761955547
42
0.34543029620377086
10
106.67727487719404
20
-454.64672142907932
42
-0.88648363312872491
10
75.137405883387572
20
-450.83719761955547
10
75.137405883387885
20
-255.83719761955561
42
-0.88648363312872624
10
106.67727487719445
20
-252.02767381003173
42
0.34543029620377053
0
CIRCLE
5
259
100
AcDbEntity
8
0
100
AcDbCircle
10
206.13740588338766
20
-255.83719761955564
30
0
40
5.4999999999999973
0
CIRCLE
5
260
100
AcDbEntity
8
0
100
AcDbCircle
10
206.13740588338729
20
-450.83719761955564
30
0
40
5.4999999999999973
0
LWPOLYLINE
5
261
100
AcDbEntity
8
0
100
AcDbPolyline
90
24
70
1
43
0.0
10
121.13740588338777
20
-280.33719761955558
10
96.137405883387828
20
-280.33719761955552
10
96.137405883387729
20
-323.33719761955541
10
95.152774844092406
20
-326.04244916651351
42
0.087488663525924548
10
92.137405883387729
20
-343.14345633279737
10
92.137405883387672
20
-363.53093890631362
42
0.087488663525924298
10
95.152774844092193
20
-380.63194607259709
10
96.137405883387629
20
-383.33719761955547
10
96.137405883387558
20
-426.33719761955552
10
121.1374058833875
20
-426.33719761955547
10
121.13740588338749
20
-423.33719761955547
10
176.13740588338737
20
-423.33719761955564
10
176.13740588338737
20
-426.33719761955558
10
201.13740588338737
20
-426.33719761955558
10
201.1374058833874
20
-383.33719761955558
10
202.12203692268287
20
-380.63194607259703
42
0.08748866352593615
10
205.13740588338746
20
-363.53093890631379
10
205.13740588338746
20
-343.14345633279737
42
0.087488663525928559
10
202.12203692268287
20
-326.04244916651373
10
201.13740588338749
20
-323.33719761955558
10
201.13740588338757
20
-280.33719761955564
10
176.13740588338766
20
-280.33719761955558
10
176.13740588338766
20
-283.33719761955558
10
121.13740588338777
20
-283.33719761955558
0
CIRCLE
5
262
100
AcDbEntity
8
0
100
AcDbCircle
10
91.137405883387871
20
-255.83719761955552
30
0
40
5.4999999999999973
0
CIRCLE
5
263
100
AcDbEntity
8
0
100
AcDbCircle
10
91.137405883387515
20
-450.83719761955547
30
0
40
5.4999999999999973
0
CIRCLE
5
264
100
AcDbEntity
8
0
100
AcDbCircle
10
10.008260341169775
20
-398.35251414875177
30
0
40
10.799999999999857
0
CIRCLE
5
265
100
AcDbEntity
8
0
100
AcDbCircle
10
10.008260341168764
20
-413.85251414875142
30
0
40
2.7499999999999627
0
CIRCLE
5
266
100
AcDbEntity
8
0
100
AcDbCircle
10
-5.4917396588299017
20
-398.35251414875074
30
0
40
2.7499999999999631
0
CIRCLE
5
267
100
AcDbEntity
8
0
100
AcDbCircle
10
10.00826034117078
20
-382.85251414875205
30
0
40
2.7499999999999631
0
CIRCLE
5
268
100
AcDbEntity
8
0
100
AcDbCircle
10
25.508260341169454
20
-398.35251414875273
30
0
40
2.7499999999999627
0
LWPOLYLINE
5
269
100
AcDbEntity
8
0
100
AcDbPolyline
90
22
70
1
43
0.0
10
31.454765407510742
20
-378.6658702745068
42
-0.1975404798786291
10
37.081672324058601
20
-376.35251414875376
10
49.008260341170605
20
-376.35251414875455
42
-0.41421356237309548
10
55.008260341170171
20
-382.35251414875478
10
55.008260341168118
20
-414.35251414875438
42
-0.41421356237309681
10
49.008260341167784
20
-420.35251414875398
10
37.081672324055738
20
-420.35251414875319
42
-0.19754047987860984
10
31.454765407508187
20
-418.03915802299946
42
0.41112393719366574
10
15.980771387002012
20
-418.03915802299855
42
-0.19754047987862863
10
10.353864470454081
20
-420.35251414875148
10
10.0082603411684
20
-420.35251414875142
42
-0.0025512030567023053
10
9.7837588558126853
20
-420.35136864354445
42
-0.19626156828140079
10
4.2085415100862376
20
-418.00863944038446
10
-9.6478649504636742
20
-404.15223297983277
42
-0.1962615682814077
10
-11.990594153622929
20
-398.57701563410609
42
-0.0051024393233299447
10
-11.990594153622888
20
-398.12801266339471
42
-0.19626156828141497
10
-9.6478649504629281
20
-392.55279531766826
10
4.2085415100887857
20
-378.69638885711828
42
-0.19626156828141716
10
9.7837588558150159
20
-376.35365965395914
42
-0.0025512030567077454
10
10.008260341171209
20
-376.35251414875205
10
10.353864470456973
20
-376.35251414875205
42
-0.19754047987861306
10
15.980771387004516
20
-378.66587027450578
42
0.41112393719366563
0
LWPOLYLINE
5
270
100
AcDbEntity
8
0
100
AcDbPolyline
90
8
70
1
43
0.0
10
-94.473431228648508
20
-475.67597075985424
10
-103.47343122864848
20
-475.67597075985424
42
0.41421356237309503
10
-107.47343122864839
20
-479.67597075985429
10
-107.47343122864827
20
-486.67597075985435
42
0.41421356237309631
10
-103.47343122864821
20
-490.67597075985424
10
-94.473431228648337
20
-490.67597075985424
42
0.41421356237310802
10
-90.473431228648323
20
-486.67597075985429
10
-90.473431228648451
20
-479.67597075985424
42
0.41421356237309631
0
LWPOLYLINE
5
271
100
AcDbEntity
8
0
100
AcDbPolyline
90
8
70
1
43
0.0
10
-107.47343122864882
20
-454.67597075985441
10
-107.47343122864869
20
-461.67597075985435
42
0.41421356237309892
10
-103.47343122864865
20
-465.67597075985429
10
-94.473431228648721
20
-465.67597075985418
42
0.4142135623730846
10
-90.473431228648735
20
-461.67597075985418
10
-90.473431228648849
20
-454.67597075985424
42
0.41421356237311585
10
-94.473431228648934
20
-450.67597075985424
10
-103.47343122864883
20
-450.67597075985441
42
0.41421356237309631
0
LWPOLYLINE
5
272
100
AcDbEntity
8
0
100
AcDbPolyline
90
8
70
1
43
0.0
10
-82.473431228648479
20
-479.67597075985418
10
-82.473431228648352
20
-486.67597075985418
42
0.41421356237310025
10
-78.473431228648295
20
-490.67597075985424
10
-69.473431228648408
20
-490.67597075985424
42
0.41421356237309631
10
-65.473431228648423
20
-486.67597075985429
10
-65.473431228648536
20
-479.67597075985407
42
0.41421356237309437
10
-69.473431228648593
20
-475.67597075985418
10
-78.473431228648494
20
-475.67597075985418
42
0.41421356237308399
0
LWPOLYLINE
5
273
100
AcDbEntity
8
0
100
AcDbPolyline
90
8
70
1
43
0.0
10
-78.473431228648735
20
-465.67597075985429
10
-69.47343122864882
20
-465.67597075985429
42
0.41421356237307944
10
-65.473431228648906
20
-461.67597075985435
10
-65.473431228649048
20
-454.67597075985429
42
0.41421356237309503
10
-69.473431228649105
20
-450.67597075985441
10
-78.47343122864892
20
-450.67597075985441
42
0.41421356237309437
10
-82.47343122864892
20
-454.67597075985441
10
-82.473431228648778
20
-461.67597075985441
42
0.4142135623730957
0
LWPOLYLINE
5
274
100
AcDbEntity
8
0
100
AcDbPolyline
90
8
70
1
43
0.0
10
31.526568771351116
20
-479.67597075985424
10
31.526568771351236
20
-486.67597075985418
42
0.41421356237309959
10
35.5265687713513
20
-490.67597075985418
10
44.52656877135118
20
-490.67597075985418
42
0.4142135623730846
10
48.52656877135118
20
-486.67597075985418
10
48.526568771351052
20
-479.67597075985418
42
0.41421356237309503
10
44.526568771351009
20
-475.67597075985424
10
35.526568771351101
20
-475.67597075985424
42
0.41421356237309503
0
LWPOLYLINE
5
275
100
AcDbEntity
8
0
100
AcDbPolyline
90
8
70
1
43
0.0
10
44.526568771350561
20
-450.67597075985429
10
35.526568771350597
20
-450.67597075985424
42
0.41421356237310153
10
31.526568771350654
20
-454.67597075985429
10
31.526568771350789
20
-461.67597075985429
42
0.41421356237309404
10
35.526568771350838
20
-465.67597075985418
10
44.52656877135076
20
-465.67597075985429
42
0.41421356237309048
10
48.526568771350753
20
-461.67597075985429
10
48.526568771350611
20
-454.67597075985424
42
0.41421356237309437
0
LWPOLYLINE
5
276
100
AcDbEntity
8
0
100
AcDbPolyline
90
8
70
1
43
0.0
10
19.526568771351091
20
-475.67597075985418
10
10.526568771351116
20
-475.67597075985418
42
0.4142135623730796
10
6.5265687713512035
20
-479.67597075985418
10
6.5265687713513216
20
-486.67597075985435
42
0.41421356237309553
10
10.526568771351386
20
-490.67597075985424
10
19.526568771351261
20
-490.67597075985418
42
0.41421356237308482
10
23.526568771351268
20
-486.67597075985418
10
23.526568771351151
20
-479.67597075985407
42
0.4142135623730952
0
LWPOLYLINE
5
277
100
AcDbEntity
8
0
100
AcDbPolyline
90
8
70
1
43
0.0
10
23.526568771350842
20
-461.67597075985435
10
23.526568771350721
20
-454.67597075985441
42
0.41421356237310009
10
19.526568771350661
20
-450.67597075985429
10
10.526568771350856
20
-450.67597075985429
42
0.41421356237309037
10
6.5265687713508616
20
-454.67597075985441
10
6.526568771350961
20
-461.67597075985441
42
0.41421356237309437
10
10.526568771351004
20
-465.67597075985429
10
19.526568771350853
20
-465.67597075985429
42
0.4142135623730846
0
CIRCLE
5
278
100
AcDbEntity
8
0
100
AcDbCircle
10
-48.473431228648693
20
-474.67597075985429
30
0
40
3.4999999999999871
0
CIRCLE
5
279
100
AcDbEntity
8
0
100
AcDbCircle
10
-10.473431228648817
20
-474.67597075985429
30
0
40
3.4999999999999893
0
LWPOLYLINE
5
280
100
AcDbEntity
8
0
100
AcDbPolyline
90
4
70
1
43
0.0
10
-13.973431228649151
20
-458.17597075985429
42
-0.99999999999999989
10
-13.973431228648963
20
-463.17597075985429
10
-44.97343122864882
20
-463.17597075985429
42
-0.99999999999999989
10
-44.973431228649034
20
-458.17597075985429
0
LWPOLYLINE
5
281
100
AcDbEntity
8
0
100
AcDbPolyline
90
12
70
1
43
0.0
10
9.739772206947956
20
-500.67597075985412
42
-0.19891236737966031
10
-0.86682951085028881
20
-496.28257247765242
10
-10.080032946447009
20
-487.06936904205583
42
0.19891236737967111
10
-20.686634664245069
20
-482.67597075985429
10
-38.260227793052174
20
-482.67597075985429
42
0.19891236737966392
10
-48.866829510850252
20
-487.069369042056
10
-58.08003294644643
20
-496.2825724776522
42
-0.1989123673796602
10
-68.686634664244622
20
-500.67597075985418
10
-119.473431228648
20
-500.67597075985418
10
-119.47343122864905
20
-440.67597075985441
10
60.526568771350327
20
-440.67597075985441
10
60.526568771351386
20
-500.67597075985418
0
LWPOLYLINE
5
282
100
AcDbEntity
8
0
100
AcDbPolyline
90
8
70
1
43
0.0
10
-56.838098873276579
20
-344.00301064444238
42
-0.41421356237310492
10
-41.838098873276053
20
-359.00301064444204
10
-41.838098873275555
20
-391.00934001191592
42
-0.53893841113348739
10
-62.768331431415106
20
-404.78730581991448
42
0.0094205570359940562
10
-65.245075617461595
20
-403.77614932195905
42
-0.30989235606504256
10
-74.838098873275172
20
-389.78455890171665
10
-74.838098873275925
20
-359.00301064444312
42
-0.41421356237310042
10
-59.838098873275925
20
-344.00301064444312
0
LWPOLYLINE
5
283
100
AcDbEntity
8
0
100
AcDbPolyline
90
20
70
1
43
0.0
10
-90.838098873271903
20
-541.0030106444467
42
-0.91531527506395183
10
-103.32161535679333
20
-400.10907803075634
42
0.36334466826181339
10
-86.838098873275769
20
-380.42064630859244
10
-86.83809887327655
20
-334.00301064444204
10
-31.838098873276465
20
-334.00301064444204
10
-31.838098873275911
20
-366.50301064444199
10
-27.838098873275893
20
-366.50301064444199
10
-27.838098873275641
20
-381.50301064444193
10
-31.838098873275655
20
-381.50301064444193
10
-31.838098873275005
20
-420.00301064444182
10
-52.877593081070387
20
-420.00301064444182
42
-0.14196726350314068
10
-58.224143192648953
20
-418.45371486979377
42
1.9530658454530039
10
-52.262138209632283
20
-517.25653177120239
42
-0.17285078187279174
10
-45.938210231985998
20
-515.00301064444159
10
-31.838098873273537
20
-515.00301064444159
10
-31.838098873273346
20
-517.00301064444159
10
-27.838098873273331
20
-517.00301064444159
10
-27.838098873273161
20
-527.00301064444159
10
-31.838098873273175
20
-527.00301064444159
10
-31.83809887327314
20
-541.00301064444625
0
CIRCLE
5
284
100
AcDbEntity
8
0
100
AcDbCircle
10
-75.063728284538712
20
-301.27926671206956
30
0
40
3.4999999999999867
0
CIRCLE
5
285
100
AcDbEntity
8
0
100
AcDbCircle
10
-34.89951066268852
20
-242.86620633320695
30
0
40
3.4999999999999867
0
LWPOLYLINE
5
286
100
AcDbEntity
8
0
100
AcDbPolyline
90
10
70
1
43
0.0
10
-22.581911931644957
20
-240.73858759363145
42
-0.80394303873675299
10
-45.187376796285584
20
-249.96619298229194
42
0.7358447817391327
10
-67.063728284539025
20
-256.78218016541382
10
-67.063728284538783
20
-292.56146882498831
42
0.11323701145891499
10
-66.063728284538882
20
-296.92036776852871
42
-1.347035811315664
10
-84.971168405283635
20
-299.92183153724437
42
0.11323701145890641
10
-85.370220142411156
20
-295.46753499221103
10
-104.47015504056247
20
-236.82441946223565
10
-105.49141203555864
20
-230.91197207133476
10
-26.632082544864673
20
-217.29060065972192
0
CIRCLE
5
287
100
AcDbEntity
8
0
100
AcDbCircle
10
-134.62900116409503
20
-297.05143808663684
30
0
40
4.5000000000000213
0
LWPOLYLINE
5
288
100
AcDbEntity
8
0
100
AcDbPolyline
90
12
70
1
43
0.0
10
-132.70006897595803
20
-280.98037027477181
42
-0.19891236737965926
10
-125.62900116409213
20
-278.05143808663831
10
-120.62900116409212
20
-278.05143808663905
10
-120.62900116409384
20
-289.551438086639
10
-116.62900116409381
20
-289.55143808663962
10
-116.62900116409605
20
-304.55143808663951
10
-120.62900116409608
20
-304.55143808663888
10
-120.6290011640978
20
-316.05143808663883
10
-125.62900116409793
20
-316.05143808663814
42
-0.19891236737965662
10
-132.70006897596286
20
-313.12250589850248
10
-141.7000689759615
20
-304.12250589850134
42
-0.4142135623730947
10
-141.70006897595948
20
-289.98037027477034
0
CIRCLE
5
289
100
AcDbEntity
8
0
100
AcDbCircle
10
-184.12926446335598
20
-297.29290278565759
30
0
40
4.5000000000000169
0
LWPOLYLINE
5
290
100
AcDbEntity
8
0
100
AcDbPolyline
90
12
70
1
43
0.0
10
-182.20033227521901
20
-281.22183497379251
42
-0.19891236737965892
10
-175.12926446335314
20
-278.29290278565907
10
-170.12926446335308
20
-278.29290278565975
10
-170.12926446335482
20
-289.79290278565975
10
-166.12926446335482
20
-289.79290278566037
10
-166.12926446335703
20
-304.79290278566026
10
-170.12926446335706
20
-304.79290278565963
10
-170.12926446335877
20
-316.29290278565958
10
-175.12926446335885
20
-316.29290278565884
42
-0.1989123673796564
10
-182.20033227522379
20
-313.36397059752323
10
-191.20033227522245
20
-304.36397059752204
42
-0.41421356237309503
10
-191.2003322752204
20
-290.22183497379109
0
CIRCLE
5
291
100
AcDbEntity
8
0
100
AcDbCircle
10
-148.10755836476042
20
-225.42953627424427
30
0
40
10.500000000000007
0
CIRCLE
5
292
100
AcDbEntity
8
0
100
AcDbCircle
10
-148.10755836476048
20
-35.429536274244413
30
0
40
10.499999999999998
0
LWPOLYLINE
5
293
100
AcDbEntity
8
0
100
AcDbPolyline
90
8
70
1
43
0.0
10
-162.10755836476039
20
-205.83361833197884
10
-162.10755836476045
20
-55.025454216509793
42
0.14966393160896208
10
-164.67898693618906
20
-46.627203669824624
42
-1.882617860078116
10
-131.53612979333192
20
-46.627203669824652
42
0.14966393160896127
10
-134.10755836476051
20
-55.025454216509843
10
-134.10755836476045
20
-205.83361833197887
42
0.14966393160896091
10
-131.53612979333184
20
-214.23186887866405
42
-1.882617860078116
10
-164.67898693618903
20
-214.23186887866405
42
0.14966393160896146
0
CIRCLE
5
294
100
AcDbEntity
8
0
100
AcDbCircle
10
-218.45882663525663
20
-225.40445582225576
30
0
40
10.499999999999979
0
CIRCLE
5
295
100
AcDbEntity
8
0
100
AcDbCircle
10
-218.4588266352568
20
-35.404455822256303
30
0
40
10.49999999999997
0
LWPOLYLINE
5
296
100
AcDbEntity
8
0
100
AcDbPolyline
90
8
70
1
43
0.0
10
-232.45882663525657
20
-205.80853787999035
10
-232.45882663525668
20
-55.000373764521655
42
0.14966393160896244
10
-235.0302552066853
20
-46.602123217836528
42
-1.8826178600781172
10
-201.88739806382824
20
-46.602123217836521
42
0.14966393160896294
10
-204.4588266352568
20
-55.000373764521711
10
-204.45882663525668
20
-205.80853787999041
42
0.14966393160896238
10
-201.88739806382813
20
-214.20678842667564
42
-1.882617860078114
10
-235.03025520668515
20
-214.20678842667559
42
0.14966393160895902
0
LWPOLYLINE
5
297
100
AcDbEntity
8
0
100
AcDbPolyline
90
8
70
1
43
0.0
10
-69.06561470379971
20
-38.310192752523044
10
-69.06561470379954
20
-29.310192752523108
42
0.41421356237309698
10
-73.065614703799454
20
-25.310192752523058
10
-80.065614703799426
20
-25.310192752522926
42
0.41421356237309925
10
-84.065614703799483
20
-29.310192752522823
10
-84.065614703799667
20
-38.310192752522752
42
0.4142135623730947
10
-80.065614703799724
20
-42.310192752522809
10
-73.065614703799767
20
-42.310192752522937
42
0.41421356237309764
0
LWPOLYLINE
5
298
100
AcDbEntity
8
0
100
AcDbPolyline
90
8
70
1
43
0.0
10
-48.065614703799525
20
-25.310192752523541
10
-55.065614703799511
20
-25.310192752523406
42
0.41421356237309798
10
-59.065614703799568
20
-29.310192752523317
10
-59.065614703799611
20
-38.310192752523264
42
0.41421356237309537
10
-55.065614703799696
20
-42.310192752523321
10
-48.065614703799795
20
-42.310192752523463
42
0.41421356237309892
10
-44.065614703799696
20
-38.310192752523527
10
-44.065614703799611
20
-29.310192752523591
42
0.41421356237309437
0
LWPOLYLINE
5
299
100
AcDbEntity
8
0
100
AcDbPolyline
90
8
70
1
43
0.0
10
-73.06561470379981
20
-50.310192752522873
10
-80.065614703799866
20
-50.310192752522752
42
0.41421356237309825
10
-84.065614703799952
20
-54.310192752522653
10
-84.065614703800108
20
-63.310192752522582
42
0.41421356237310086
10
-80.065614703800193
20
-67.310192752522624
10
-73.065614703800122
20
-67.310192752522767
42
0.41421356237309825
10
-69.065614703800051
20
-63.310192752522873
10
-69.065614703799881
20
-54.310192752522923
42
0.41421356237309698
0
LWPOLYLINE
5
300
100
AcDbEntity
8
0
100
AcDbPolyline
90
8
70
1
43
0.0
10
-59.065614703800016
20
-54.310192752523115
10
-59.065614703800179
20
-63.310192752522994
42
0.41421356237309959
10
-55.065614703800271
20
-67.310192752523051
10
-48.065614703800293
20
-67.31019275252315
42
0.41421356237309825
10
-44.065614703800208
20
-63.310192752523264
10
-44.065614703800051
20
-54.310192752523406
42
0.41421356237309764
10
-48.065614703799973
20
-50.310192752523349
10
-55.065614703799952
20
-50.310192752523221
42
0.4142135623730957
0
LWPOLYLINE
5
301
100
AcDbEntity
8
0
100
AcDbPolyline
90
8
70
1
43
0.0
10
-73.065614703801941
20
-164.31019275252203
10
-80.065614703801899
20
-164.31019275252191
42
0.41421356237309764
10
-84.06561470380197
20
-168.3101927525218
10
-84.065614703802112
20
-177.31019275252177
42
0.41421356237310414
10
-80.065614703802197
20
-181.3101927525218
10
-73.065614703802211
20
-181.31019275252191
42
0.41421356237309115
10
-69.065614703802169
20
-177.31019275252206
10
-69.065614703802026
20
-168.31019275252208
42
0.41421356237309764
0
LWPOLYLINE
5
302
100
AcDbEntity
8
0
100
AcDbPolyline
90
8
70
1
43
0.0
10
-44.06561470380224
20
-177.31019275252251
10
-44.065614703802012
20
-168.3101927525226
42
0.41421356237308982
10
-48.065614703801955
20
-164.31019275252251
10
-55.065614703801849
20
-164.31019275252237
42
0.41421356237309115
10
-59.065614703801913
20
-168.31019275252228
10
-59.065614703802197
20
-177.31019275252223
42
0.41421356237309825
10
-55.065614703802297
20
-181.31019275252228
10
-48.065614703802304
20
-181.31019275252243
42
0.4142135623730937
0
LWPOLYLINE
5
303
100
AcDbEntity
8
0
100
AcDbPolyline
90
8
70
1
43
0.0
10
-69.065614703801629
20
-152.31019275252223
10
-69.065614703801472
20
-143.31019275252228
42
0.41421356237310153
10
-73.065614703801387
20
-139.31019275252225
10
-80.065614703801472
20
-139.31019275252208
42
0.41421356237309503
10
-84.065614703801529
20
-143.310192752522
10
-84.065614703801685
20
-152.31019275252191
42
0.41421356237309764
10
-80.065614703801756
20
-156.31019275252197
10
-73.065614703801685
20
-156.31019275252211
42
0.41421356237309698
0
LWPOLYLINE
5
304
100
AcDbEntity
8
0
100
AcDbPolyline
90
8
70
1
43
0.0
10
-55.065614703801842
20
-156.31019275252245
10
-48.065614703801856
20
-156.3101927525226
42
0.4142135623730957
10
-44.065614703801792
20
-152.31019275252271
10
-44.065614703801643
20
-143.31019275252285
42
0.41421356237310153
10
-48.065614703801558
20
-139.31019275252279
10
-55.065614703801543
20
-139.31019275252265
42
0.41421356237309698
10
-59.0656147038016
20
-143.31019275252254
10
-59.065614703801764
20
-152.31019275252243
42
0.41421356237309959
0
CIRCLE
5
305
100
AcDbEntity
8
0
100
AcDbCircle
10
-68.06561470380052
20
-84.310192752522738
30
0
40
3.4999999999999893
0
CIRCLE
5
306
100
AcDbEntity
8
0
100
AcDbCircle
10
-68.065614703801188
20
-122.31019275252245
30
0
40
3.4999999999999911
0
LWPOLYLINE
5
307
100
AcDbEntity
8
0
100
AcDbPolyline
90
4
70
1
43
0.0
10
-51.56561470380116
20
-118.81019275252285
42
-0.99999999999999989
10
-56.56561470380116
20
-118.81019275252271
10
-56.565614703800591
20
-87.810192752522894
42
-0.99999999999999989
10
-51.565614703800627
20
-87.810192752523037
0
LWPOLYLINE
5
308
100
AcDbEntity
8
0
100
AcDbPolyline
90
12
70
1
43
0.0
10
-94.06561470380143
20
-142.52339618811828
42
-0.19891236737965706
10
-89.672216421599558
20
-131.91679447032021
10
-80.459012986002975
20
-122.70359103472401
42
0.19891236737966031
10
-76.065614703800975
20
-112.09698931692594
10
-76.065614703800662
20
-94.523396188118994
42
0.19891236737965881
10
-80.459012986002264
20
-83.916794470320724
10
-89.672216421598549
20
-74.703591034724184
42
-0.1989123673796572
10
-94.065614703800094
20
-64.096989316925956
10
-94.065614703799184
20
-13.310192752522752
10
-34.065614703799355
20
-13.310192752523911
10
-34.065614703802552
20
-193.31019275252262
10
-94.065614703802382
20
-193.31019275252146
0
CIRCLE
5
309
100
AcDbEntity
8
0
100
AcDbCircle
10
-330.34437917418359
20
-622.073131641891
30
0
40
3.0000000000000004
0
CIRCLE
5
310
100
AcDbEntity
8
0
100
AcDbCircle
10
-404.34437917418359
20
-622.07313164189088
30
0
40
3.0000000000000004
0
CIRCLE
5
311
100
AcDbEntity
8
0
100
AcDbCircle
10
-330.34437917418353
20
-498.07313164189111
30
0
40
3.0000000000000004
0
CIRCLE
5
312
100
AcDbEntity
8
0
100
AcDbCircle
10
-404.34437917418347
20
-498.07313164189105
30
0
40
3.0000000000000004
0
CIRCLE
5
313
100
AcDbEntity
8
0
100
AcDbCircle
10
-404.34437917418342
20
-82.073131641891592
30
0
40
3.0000000000000004
0
CIRCLE
5
314
100
AcDbEntity
8
0
100
AcDbCircle
10
-330.34437917418347
20
-206.07313164189151
30
0
40
3.0000000000000004
0
CIRCLE
5
315
100
AcDbEntity
8
0
100
AcDbCircle
10
-404.34437917418347
20
-206.07313164189145
30
0
40
3.0000000000000004
0
CIRCLE
5
316
100
AcDbEntity
8
0
100
AcDbCircle
10
-330.34437917418347
20
-82.073131641891663
30
0
40
3.0000000000000004
0
ENDSEC
0
SECTION
2
OBJECTS
0
DICTIONARY
5
C
100
AcDbDictionary
3
ACAD_GROUP
350
D
3
ACAD_MLINESTYLE
350
17
0
DICTIONARY
5
D
100
AcDbDictionary
0
DICTIONARY
5
1A
330
C
100
AcDbDictionary
0
DICTIONARY
5
17
100
AcDbDictionary
0
ENDSEC
0
EOF
